Song name
# A B C D E F G H I J K L M N O P Q R S T U V W X Y Z

Blur - Music Is My Radar tab

-------------------------------------------------------------------------------
			     Music is my radar - Blur
-------------------------------------------------------------------------------
Tabbed by: Angel
Email: lasfinisimas@hotmail.com

Tuning: Standard

I didn't post the strumming pattern or times but you figure out easy

Riff 1

   E
e|------------------19-------19-------19-------19-----|
B|------------15-------15-------15-------15-------15--|
G|------14/16----16-------16-------16-------16--------|
D|----------------------------------------------------|
A|----------------------------------------------------|
E|-0~-------------------------------------------------|

Riff 2
e|---------------------------------------------5-7-5-7-10-7-10-12--|
B|-----------------------------5---5---5-8-5-8---------------------|
G|-----------------4---4-7-4-7---7---7-----------------------------|
D|---------5---5-7---7---------------------------------------------|
A|-5---5-7---7-----------------------------------------------------|
E|---7-------------------------------------------------------------|

Riff 3 (funky rythm)

   Em
e|-12--|
B|-12--|
G|-12--|
D|-14--|
A|-14--|
E|-12--|

Riff 4 (with lots of fuzz)

    G
e|------|
B|------|
G|------|
D|------|
A|------|
E|--3~--|

Riff 5

e|--------------------------|
B|--------------------------|
G|--------------------------|
D|-9-9-7-5-5/7-5------------|
A|--------------------------|
E|---------------3-5-3-7-0--|



| /  slide up
| \  slide down
| h  hammer-on
| p  pull-off
| ~  vibrato
| +  harmonic
| x  Mute note
Tap to rate this tab
# A B C D E F G H I J K L M N O P Q R S T U V W X Y Z