Song name
# A B C D E F G H I J K L M N O P Q R S T U V W X Y Z

Blur - No Distance Left To Run tab

Tabbed by: danabnornmal

Tuning: DGDGBd (Open G)

Most of the timing is probably completely out - listen t the song and you should be able 
pick up the right rhythm

d|--------------------------------------------------------------------------|
B|--------------------------------------------------------------------------|
G|--4^-----------------------4^------------------------4^-------------------|
D|--5^-----------------------5^------------------------5^-------------------|
G|---------9^^------------------------9^^----------------------9^^--9^^-----|
D|------0--------0-----0-0--------0---------0----0-0-------0-------------0--|


d|-10--10--10--10-    10---x--x--x--x----x----x----x------------------------|
B|-10--10--10--10-    10---8--7--5--3----5----10---7------------------------|
G|-11--11--11--11- x2 11---9--7--6--4----6----11---7------------------------|
D|-x---x---x---x--    x----x--x--x--x----x----x----x------------------------|
G|-11--11--11--11-    11---9--7--6--4--4s6--6s11---7------------------------|
D|-0---0---0---0--    0----0--x--x--x----x----x----x------------------------|

d|----7h9----7h9---7h9------------------------------------------------------|
B|----7------7-----7-------10-------------10--------------------------------|
G|----7------7-----7----------11-----10---9------0----3s4-----4s7----2------|
D|-9-----------------------------11-------7------0----4s5-----5s8---3-------|
G|-0--------------------------------------9------0---------0----------------|
D|----------------------------------------7------------------------3--------|

d|--------------------------------------------------------------------------|
B|--------------------------------------------------------------------------|
G|--4^-----------------------4^------------------------4^-------------------|
D|--5^-----------------------5^------------------------5^-------------------|
G|---------9^^------------------------9^^----------------------9^^--9^^-----|
D|0-----0--------0-----0-0--------0---------0----0-0-------0-------------0--|

etc for the first section (verses 1 and 2)

then during "I'm coming home....."

d|--------------------------------------------------------------------------|
B|-----3----------3---------------------------------------------------------|
G|--5-----2----5-----2----5--4----------------------------------------------|
D|--4-----4----4-----4----7--5---7------------------------------------------|
G|--0----------0----------7--5---7------------------------------------------|
D|--------0----------0-----------0------------------------------------------|

not perfect by any means, but most of the tune is improv by Graham.
please comment and rate etc. (spent ages on this!)
Tap to rate this tab
# A B C D E F G H I J K L M N O P Q R S T U V W X Y Z