Song name
# A B C D E F G H I J K L M N O P Q R S T U V W X Y Z

Blur - Miss America tab

I tried getting the actual tabs for this song, but was disappointed when my searches
returned only chord progressions that were close, but not quite as dissonant and beautiful
as the actual chords of the song. So, after listening to the song more times that I can 
count, here is the actual guitar part. The guitar part was constructed by matching notes
on the piano (and sounds like the song), so I believe it is authentic.

PLEASE NOTE IRREGULAR TUNING (credit to some random person who commented on the video on youtube!)

The line:
1/2-2-1/2-2/2-/2---1-1/2-2-1/2-2/2-/2---0-
I know I said to slide, but I usually just put down my middle finger onto the second
fret instead of sliding my index. The notation 2/2 mean after the first 2 on the beat play
a quick first fret and quickly press back down on fret two. This is like the second /2. 
Quickly play the first fret before pressing the second.

X in the tablature means that I usually just graze the string with my ring finger
(playing the D string lowest in pitch). This way you can strum all six strings but that one
will be inaudible.

d:Stroke downward, u: upward, p: play with thumb before continuing down stroke. These
are just included so that you get a sense of the strum pattern.

Enjoy!
~Sara


    d   d   d  u d  u p  d u  u    u d  u
D---0---0---0--2-0--0----0-0--0----0-0--0----------|
A---3---3---3--3-3--0----0-0--0----0-0--0----------|
G---2---2---2--2-2--2----2-2--2/4--4-4--4----------|
D---0---0---0--0-0--0----0-0--0----0-0--0----------|
A----------------------------------x-x--x----------|
D---------------------3--------/5--5-5--5----------|
    1   2   3  a 4  a 1  a 2  a 3  a 4  a


 d   d   d  u d  u p  d u  u   u d  u
-0---0---0--0-0--0----0-0--0---0-0--0-|
-1---1---1--1-1--0----1-1--1---1-1--1-|
-0---0---0--0-0--0----2-2--2---2-2--2-|
-2---2---2--2-2-------x-x--x---x-x--x-|
-3---3---3--3-3----1--1-1--1---1-1--1-|
--------------------------------------|
 1   2   3  a 4  a 1  a 2  a   a 4  a


BEGINNING OF VERSES

 d   d   d  u d  u p  d u  u    u d  u
-0---0---0--2-0--0----0-0--0-0--0-0--0----------|
-3---3---3--3-3--0----0-0--0-0--0-0--0----------|
-2---2---2--2-2--2----2-2--2/4--4-4--4----------|
-0---0---0--0-0--0----0-0--0-0--0-0--0----------|
--------------------------------x-x--x----------|
-------------------3--------/5--5-5--5----------|
 1   2   3  a 4  a 1  a 2  a 3  a 4  a


 d   d   d  u d  u p  d u  u   u d  u
-0---0---0--0-0--0----0-0--0---0-0--0-|
-1---1---1--1-1--0----1-1--1---1-1--1-|
-0---0---0--0-0--0----2-2--2---2-2--2-|
-2---2---2--2-2-------x-x--x---x-x--x-|
-3---3---3--3-3----1--1-1--1---1-1--1-|
--------------------------------------|
 1   2   3  a 4  a 1  a 2  a   a 4  a


 d   d  u d  u d  u p  d u  u    u d  u
-0---0--0-0--2-0--0----0-0--0-0--0-0--0----------|
-3---3--3-3--3-3--0----0-0--0-0--0-0--0----------|
-2---2--2-2--2-2--2----2-2--2/4--4-4--4----------|
-0---0--0-0--0-0--0----0-0--0-0--0-0--0----------|
---------------------------------x-x--x----------|
--------------------3--------/5--5-5--5----------|
 1   2  a 3  a 4  a 1  a 2  a 3  a 4  a


 d   d   d  u d  u p  d u  u   u d  u
-0---0---0--0-0--0----0-0--0---0-0--0-|
-1---1---1--1-1--0----1-1--1---1-1--1-|
-0---0---0--0-0--0----2-2--2---2-2--2-|
-2---2---2--2-2-------x-x--x---x-x--x-|
-3---3---3--3-3----1--1-1--1---1-1--1-|
--------------------------------------|
 1   2   3  a 4  a 1  a 2  a   a 4  a


 d   d   d  u d  u p  d u  u   u d  u
-0---0---0--0-0--0----0-0--0---0-0--0-|
-0---0---0--0-0--0----2-2--2---2-2--2-|
-4---4---4--4-4--4----3-3--3---3-3--3-|
-0---0---0--0-0--0----x-x--x---x-x--x-|
-x---x---x--x-x--x-1--1-1--1---1-1--1-|
-5---5---5--5-5--5--------------------|
 1   2   3  a 4  a 1  a 2  a   a 4  a


 d   d   d  u d  u d   d  u
-0---0---0--0-0--0-0---0--0-|
-0---0---0--0-0--0-2---2--2-|
-4---4---4--4-4--4-3---3--3-|
-0---0---0--0-0--0-x---x--x-|
-x---x---x--x-x--x-1---1--1-|
-5---5---5--5-5--5----------|
 1   2   3  a 4  a 1   2  a


 d   d d   d d  d   d d   d d   d d  d   u
-1/2-2-1/2-2/2-/2---1-1/2-2-1/2-2/2-/2---0--|
-3---3-3---3-3--3---3-3---3-3---3-3--3---3--|
-0---0-0---0-0--0---0-0---0-0---0-0--0---0--|
-x---x-x---x-x--x---x-x---x-x---x-x--x------|
-3---3-3---3-3--3---3-3---3-3---3-3--3------|
--------------------------------------------|
1 e a 2 e a 3  a   a 1 e a 2 e a 3  a   a

For verse 1, go back to the beginning. For versus 2 and 3:

 d  u d  u   u   u   u d  u   u d  u
-0--0-0--0---0---0---0-0--0---0-0--0-------|
-0--0-0--0---0---3---3-3--3---3-3--3-------|
-4--4-4--4---3---2---2-2--2---2-2--0-------|
-4--4-4--4---3---2---2-2--2---2-2--0-------|
-2--2-2--2---1---0---0-0--0---0-0--0-------|
-------------------------------------------|
 1  a 2  a   a   a   a 2  a   a 4  a


 d   d d   d d  d   d d   d d   d d  d
-1/2-2-1/2-2/2-/2---1-1/2-2-1/2-2/2-/2---0-|
-3---3-3---3-3--3---3-3---3-3---3-3--3---3-|
-0---0-0---0-0--0---0-0---0-0---0-0--0---0-|
-x---x-x---x-x--x---x-x---x-x---x-x--x-----|
-3---3-3---3-3--3---3-3---3-3---3-3--3-----|
-------------------------------------------|
 1 e a 2 e a 3  a   a 1 e a 2 e a 3  a   a

Play twice and go back to beginning of verse
Tap to rate this tab
 
# A B C D E F G H I J K L M N O P Q R S T U V W X Y Z