Song name
# A B C D E F G H I J K L M N O P Q R S T U V W X Y Z

Bob Mould - Black Sheets Of Rain tab

#----------------------------------PLEASE NOTE---------------------------------#
#This file is the author's own work and represents their interpretation of the #
#song. You may only use this file for private study, scholarship, or research. #
#------------------------------------------------------------------------------##
From: Raymond Vellani 

Black Sheets of Rain, Bob Mould


main riff:

e-----------------------------------------|
b-----------------------------------------|
g--------0------------0-----------0-------|
d-----2------------2----------4-----------|
a--0--------0--3-------3--5--------5------|
e-----------------------------------------|

e--0--0--3--3---2----|
b--0--0--3--3---3----|
g--2--2--0--0---2----|
d--2--2--0--0---0----|
a--0--0--2--2---0----|
e---------3--3---2---|


Em         D       Bm       C
is there an upside.........

Em    D     C

Em     D     C

B7 (sort of)

(some more stuff then, )

F       C       Em
black  sheets...........

C     D     G

D     Em

D      C..........Em

this is it, except for some funny stuff at the end of the 2nd chorus
Tap to rate this tab
 
# A B C D E F G H I J K L M N O P Q R S T U V W X Y Z