Song name
# A B C D E F G H I J K L M N O P Q R S T U V W X Y Z

Bob Seger - Old Time Rock N Roll tab

Artist:Bob Seger
Song:Old Time Rock and Roll
Album:Stranger in Town
Year:1978

I think it's easier to play with a capo on the 2nd fret.


Notes relevant to capo!

Intro. (arr. for guitar, originaly played on the piano)
E|------------------------------------------|
B|------------------------------------------|
G|------------------------------------------|
D|------------------------------------------|
A|-7-7-7-7-7--------------7-7-7-7-7---------|
E|-----------10-9-7----------------10-9-7---|


It's just pretty much the same riff throughout the whole song.
Both Verse and Chorus.

E-------------------------------------------------------------------------|
B-------------------------------------------------------------------------|
G-------------------------------------------------------------------------|
D----------------------------------2-2-4---2-2-4---2-2-4---2-2-4----------|
A--2-2-4---2-2-4---2-2-4---2-2-4---0-0-0---0-0-0---0-0-0---0-0-0----------|
E--0-0-0---0-0-0---0-0-0---0-0-0------------------------------------------|

E--------------------------------------------------------------------------|
B--------------------------------------------------------------------------|
G--------------------------------------------------------------------------|
D--4-4-6---4-4-6---4-4-6---4-4-6----------------------------4-4-4-4-4-4-4--|
A--2-2-2---2-2-2---2-2-2---2-2-2---2-2-4---2-2-4----2-2-----2-2-2-2-2-2-2--|
E----------------------------------0-0-0---0-0-0----0-0--------------------|


There is a solo near the end, havent figuered that out yet, but this is the majority of 
song anyways.

Feel free to send me an email or whatever if you think theres any problems or anything 
think would make it better.

It's one of the best songs - probably ever!!!

LONG LIVE SEGER!!!!!
Tap to rate this tab
# A B C D E F G H I J K L M N O P Q R S T U V W X Y Z