Song name
# A B C D E F G H I J K L M N O P Q R S T U V W X Y Z

Bobby Doran - All She Wrote tab

Help us improve GuitareTab! Take a short survey!
INTRO - rhythm

e|-14-11----11--14-11----11---------|
B|-------14-----------14----14------|
G|----------------------------------|
D|----------------------------------|
A|----------------------------------|
E|----------------------------------|

AND

e|----------------------------------|
B|----------------------------------|
G|----------------------------------|
D|-9-9-9-9--6-6-6-6--4--------------|
A|-9-9-9-9--6-6-6-6--4--------------|
E|-7-7-7-7--4-4-4-4--2--------------|


---------------------------------------------------------

VERSE 1

e|-------------------------------------------------------------------------|
B|-------------------------------------------------------------------------|
G|-------------------------------------------------------------------------|
D|-11-11-11-11-11-11-11-11-6-6-6-6-6-6-6-6-9-9-9-9-9-9-9-9-4-4-4-4-4-4-4-4-|
A|-11-11-11-11-11-11-11-11-6-6-6-6-6-6-6-6-9-9-9-9-9-9-9-9-4-4-4-4-4-4-4-4-|
E|-9--9--9--9--9--9--9--9--4-4-4-4-4-4-4-4-7-7-7-7-7-7-7-7-2-2-2-2-2-2-2-2-|

  She wanders all alone                This is all she's ever really known

e|-------------------------------------------------------------------------|
B|-------------------------------------------------------------------------|
G|-------------------------------------------------------------------------|
D|-11-11-11-11-11-11-11-11-6-6-6-6-6-6-6-6-4-4-4-4-4-4-4-4-4-4-4-4-4-4-4-4-|
A|-11-11-11-11-11-11-11-11-6-6-6-6-6-6-6-6-4-4-4-4-4-4-4-4-4-4-4-4-4-4-4-4-|
E|-9--9--9--9--9--9--9--9--4-4-4-4-4-4-4-4-2-2-2-2-2-2-2-2-2-2-2-2-2-2-2-2-|

  -------------------------------------------------------------------------

CHORUS

e|-----------------------------------------------|
B|-----------------------------------------------|
G|-----------------------------------------------|
D|-2-2-2-2--9-9-9-9--6-6-6-6--4-4-4-4------------|
A|-2-2-2-2--9-9-9-9--6-6-6-6--4-4-4-4------------|
E|-0-0-0-0--7-7-7-7--4-4-4-4--2-2-2-2------------|

 NOBODY OUT THERE ....


e|----------------------------------|
B|----------------------------------|
G|----------------------------------|
D|-9-9-9-9--6-6-6-6--4--------------|
A|-9-9-9-9--6-6-6-6--4--------------|
E|-7-7-7-7--4-4-4-4--2--------------|

e|-14-11----11--14-11----11---------|
B|-------14-----------14----14------|
G|----------------------------------|
D|----------------------------------|
A|----------------------------------|
E|----------------------------------|

 THAT'S ALL SHE WROTE
Related for All She Wrote tab