Song name
# A B C D E F G H I J K L M N O P Q R S T U V W X Y Z

Bodyjar - Hazy Shade Of Winter tab

Bodyjar- Hazy shade of winter

INTRO
E|-----------------------------------------------------------------------|
B|-----------------------------------------------------------------------|
G|----------------------------8-6----------------------------------------|
D|------6-8b-10-8---6------ 8-------8----------6--8b-10---------10-8-10--|
A|--8-8----------------6-6------------------------------------10---------|
E|-----------------------------------------9-9------------9-8------------|

VERSE
E|-----------------------------------------------------------------------|
B|-----------------------------------------------------------------------|
G|-----------------------------------------------------------------------|
D|---10-10-10---10-10-10---10-10-10----10-10-10---8-8-8--8-8-8--8-8-8----|
A|---10-10-10---10-10-10---10-10-10----10-10-10---8-8-8--8-8-8--8-8-8----|
E|----8--8--8----8--8--8----8--8--8-----8--8--8---6-6-6--6-6-6--6-6-6----|
Tap to rate this tab
# A B C D E F G H I J K L M N O P Q R S T U V W X Y Z