Guitaretab - guitar tabs
Song name
# A B C D E F G H I J K L M N O P Q R S T U V W X Y Z

Boehse Onkelz - Die Firma tab


tabber:  Marix12

INTRO ( HEY HEY )
|-----------------------------------------------------------------|
|-----------------------------------------------------------------|
|---------------9--9-9-9---------------11--11-11-11---------------|
|--6-6-6-6-hey--9--9-9-9--9-9-9-9-hey--11--11-11-11---------------| 
|--6-6-6-6------7--7-7-7--9-9-9-9------9---9--9--9----------------|
|--4-4-4-4----------------7-7-7-7---------------------------------|

vers
|-----------------------------------------------------------------|
|-----------------------------------------------------------------|
|-----------------------------------------------------------------| 
|-----------------------------------------------------------------|
|-----------------7-7-7-7-7-7-7-7-4-4-4-4-4-4-4-4-4-4-4-4-4-4-4-4-|
|-4-4-4-4-4-4-4-4-------------------------------------------------|

     
|-----------------------------------------------------------------|
|-----------------------------------------------------------------|
|-----------------------------------------------------------------| 
|6-6-6-6-6-6-6-6--------------------------------------------------|
|6-6-6-6-6-6-6-6--------------------------------------------------|
|4-4-4-4-4-4-4-4....----------------------------------------------|


[ Tab from: http://www.guitaretab.com/b/boehse-onkelz/69238.html ]
|-----------------------------------------------------------------|
|-----------------------------------------------------------------|
|-Komm mit uns-9-9--6-6-------und sei Gewiss,-9-9--6-6------------|
|--------------9-9--6-6--6-6------------------9-9--6-6--6-6-------|
|--------------7-7--4-4--6-6------------------7-7--4-4--6-6-------|
|------------------------4-4----------------------------4-4-------|


|-----------------------------------------------------------------|
|-----------------------------------------------------------------|
|--das-wir-wissen-9-9--6-6----------------------------------------| 
|-----------------9-9--6-6--6-6-----------------------------------|
|-----------------7-7--4-4--6-6-----------------------------------|
|---------------------------4-4-----------------------------------|



chorus
|-----------------------------------------------------------------|
|-----------------------------------------------------------------|
|--------9-9-9-9---------11-11-11-11------------------------------|
|6-6-6-6-9-9-9-9-9-9-9-9-11-11-11-11------------------------------|
|6-6-6-6-7-7-7-7-9-9-9-9-9--9--9--9-------------------------------|
|4-4-4-4---------7-7-7-7------------------------------------------|


this is my first tab i hope its correct

for correction send an e-mail to jan-bro@web.de

icq: 362375378
Related for Die Firma tab
Advertisement will be closed in 10 seconds