Song name
# A B C D E F G H I J K L M N O P Q R S T U V W X Y Z

Bon Iver - Perth tab

Tuning:
D A D G A D

Capo 1st fret

Intro and Chorus:
                                       Chorus begins with this Ho-Po-sequence
D|-------------------------------------------2h4h5p4p2p0--|
A|--------0h2--0-----2h4h5p4p2p0--4/5---------------------|
G|--------0----2------------------4-----------------------|
D|--------------------------------------------------------|
A|--5----------0--0---------------2-----------------------|
D|--5--5--------------------------------------------------|


Verse:

E|--------------------------|
B|--------------------------|
G|-----7-----6-----7-----4--|
D|-----0-----0-----0-----0--|
A|--------------------------|
E|--0-----7-----9-----5-----|
Tap to rate this tab
 
# A B C D E F G H I J K L M N O P Q R S T U V W X Y Z