Song name
# A B C D E F G H I J K L M N O P Q R S T U V W X Y Z

Bond - Homecoming tab

Homecoming
Bond

E----3---0-3-0-3-0-3---0-3-2-0-----2-----2---2---2-----2-3-2-----|
B------------------------------3-------3---3---3-----3-------3---|
G----------------------------------------------------------------|
D----------------------------------------------------------------|
A----------------------------------------------------------------|
E----------------------------------------------------------------|

E---5-3-2-------5-3-2--------0-2---0-----5-3-2-------------------|
B---------3-----------3----3-----3-------------3---2-0---0-------|
G------------------------------------------------------2---------|
D----------------------------------------------------------------|
A----------------------------------------------------------------|
E----------------------------------------------------------------|

E---------2------5-3-2-------5-3-2--------0-2---0-----5-3-2------|
B---0-2-3--------------3-----------3----3-----3-------------3----|
G----------------------------------------------------------------|
D----------------------------------------------------------------|
A----------------------------------------------------------------|
E----------------------------------------------------------------|

E----------------------------------------------------------------|
B---2-0---0-----0-2-3-0-2-3-5------5-3-2-------------------------|
G-------2--------------------------------3------etc.-------------|
D----------------------------------------------------------------|
A----------------------------------------------------------------|
E----------------------------------------------------------------|


All I know is this :D I hope you all enjoy playing it ^-^
Tap to rate this tab
 
# A B C D E F G H I J K L M N O P Q R S T U V W X Y Z