Guitaretab - guitar tabs
Song name
# A B C D E F G H I J K L M N O P Q R S T U V W X Y Z

Born From Pain - Survival tab

                              /                                  /
                             /        Born From Pain            /
                            /           Survival               /
                           /  (2008 Metal Blade Records Inc.) /
                          /__________________________________/

All the following tabs are transcribed by me, exept for "The Wolves Are Loose".

I transcribed this album because I loved the music and Born From Pain`s guitar work.


You can see a few videos played by me at:  --->    http://www.youtube.com/user/b00nanza    <---

And for questions, comments and corrections  just mail me at SMaierhof@web.de !


Vocals: Rob Franssen
Guitar: Dominik Stammen
Guitar: Karl Fieldhouse
Bass  : Andries Beckers
Drums : Roy Moonen

 1.  Sound Of Survival	   ->	 Music: Karl Fieldhouse, Roy Moonen       Lyrics: Rob Franssen
 2.  State Of Mind	   ->	 Music: Karl Fieldhouse, Dominik Stammen  Lyrics: Rob Franssen
 3.  Sons Of A Dying World ->    Music: Karl Fieldhouse, Dominik Stammen  Lyrics: Rob Franssen
 4.  The Wolves Are Loose  ->    Music: Dominik Stammen, Karl Fieldhouse  Lyrics: Rob Franssen
 5.  Never Die             ->    Music: Dominik Stammen, Karl Fieldhouse  Lyrics: Rob Franssen
 6.  Final Collapse        ->    Music: Dominik Stammen, Rob Franssen     Lyrics: Rob Franssen
 7.  Endgame               ->    Music: Karl Fieldhouse, Dominik Stammen  Lyrics: Rob Franssen
 8.  Zeitgeist             ->    Music: Dominik Stammen, Rob Franssen     Lyrics: Rob Franssen
 9.  The Hydra             ->    Music: Dominik Stammen, Karl Fieldhouse  Lyrics: Rob Franssen
10.  Zero Hour             ->    Music: Dominik Stammen, Rob Franssen     Lyrics: Rob Franssen
11.  Under False Flag      ->    Music: Karl Fieldhouse, Dominik Stammen  Lyrics: Rob Franssen


*************************************************************************************************



-------------------------------------------------------------------------------
			Sound Of Survival - Born From Pain
-------------------------------------------------------------------------------

ARTIST   : Born From Pain
SONG     : Sound Of Survival
ALBUM    : Survival
TABBED BY: h8urlife
TUNING   : Standard  C# G# C# F# A# D#


                (Verse)
D#|--------------------------------------|
A#|--------------------------------------|
F#|--------------------------------------|
C#|--------------------------------------|
G#|------7----6--------5----4--------4-3-|
C#|-0000-5-00-4-000000-3-00-2-000000-2-1-|
    ....   ..   ......   ..   ......


                (Chorus)
D#|--------------------------------------------|
A#|--------------------------------------------|
F#|--------------------------------------------|
C#|-10-9--10~--10-9--10~--10-9--10~--10-9--10~-|
G#|-8--7--8-~--8--7--8-~--8--7--8-~--8--7--8-~-|
C#|--------------------------------------------|


                (Verse)
D#|--------------------------------------|
A#|--------------------------------------|
F#|--------------------------------------|
C#|--------------------------------------|
G#|------7----6--------5----4--------4-3-|
C#|-0000-5-00-4-000000-3-00-2-000000-2-1-|
    ....   ..   ......   ..   ......

                (Chorus)
D#|--------------------------------------------|-----|
A#|--------------------------------------------|-----|
F#|--------------------------------------------|-----|
C#|-10-9--10~--10-9--10~--10-9--10~--10-9--10~-|-----|
G#|-8--7--8-~--8--7--8-~--8--7--8-~--8--7--8-~-|--3~-|
C#|--------------------------------------------|--1~-|




Starts again with:

                  (Verse)
D#|--------------------------------------|
A#|--------------------------------------|
F#|--------------------------------------|
C#|--------------------------------------|
G#|------7----6--------5----4--------4-3-|
C#|-0000-5-00-4-000000-3-00-2-000000-2-1-|
    ....   ..   ......   ..   ......


                (Chorus)
D#|--------------------------------------------|-----|
A#|--------------------------------------------|-----|
F#|--------------------------------------------|-----|
C#|-10-9--10~--10-9--10~--10-9--10~--10-9--10~-|-----|
G#|-8--7--8-~--8--7--8-~--8--7--8-~--8--7--8-~-|--2~-|
C#|--------------------------------------------|--0~-|




-------------------------------------------------------------------------------
			State Of Mind - Born From Pain
-------------------------------------------------------------------------------

ARTIST   : Born From Pain
SONG     : State Of Mind
ALBUM    : Survival
TABBED BY: h8urlife
TUNING   : Standard  C# G# C# F# A# D#

Intro:

D#|----------------------------------------------------|
A#|----------------------------------------------------|
F#|----------------------------------------------------|
C#|----------------------------------------------------|
G#|-5--4--4--5--4--4--5--4~---5--4--4--5--4--4--5--4---|
C#|-3--2--2--3--2--2--3--2~---3--2--2--3--2--2--3--2---|


Verse:

D#|-----------------------------------------------------------|
A#|-----------------------------------------------------------|
F#|-----------------------------------------------------------|
C#|-----------------------------------------------------------|
G#|----------4/5-4/5----------5-4-7-5----------5---5---5---5--|
C#|-22222222-2/3-2/3-22222222-3-2-5-3-22222222-3-0-3-0-3-0-3--|
    ........         ........ . . . . ........   .   .   .

Chorus:

D#|------------------------------------------------|
A#|------------------------------------------------|
F#|------------------------------------------------|
C#|------------------------------------------------|
G#|-4~---5~---4~---7--5--4~---5~---4~---5---5---5--|
C#|-2~---3~---2~---5--3--2~---3~---2~---3-0-3-0-3--|
                                          .   .

Verse:

D#|-----------------------------------------------------------|
A#|-----------------------------------------------------------|
F#|-----------------------------------------------------------|
C#|-----------------------------------------------------------|
G#|----------4/5-4/5----------5-4-7-5----------5---5---5---5--|
C#|-22222222-2/3-2/3-22222222-3-2-5-3-22222222-3-0-3-0-3-0-3--|
    ........         ........ . . . . ........   .   .   .


Chorus:
                      (2x)                               (1x)
D#|------------------------------------------------|----------------|
A#|------------------------------------------------|----------------|
F#|------------------------------------------------|---7---7---7----|
C#|------------------------------------------------|---5---5---5----|
G#|-4~---5~---4~---7--5--4~---5~---4~---5---5---5--|--------------2-|
C#|-2~---3~---2~---5--3--2~---3~---2~---3-0-3-0-3--|-0---0---0----0-|
                                          .   .      .   .   .


Breakdown:

D#|----------------------------------------------------------|
A#|----------------------------------------------------------|
F#|----------------------------------------------------------|
C#|----------------------------------------------------------|
G#|-2-----2---------5-----2---------3-----2---------5--3--6--|
C#|-0-0-0-0-0-0-0-0-3-0-0-0-0-0-0-0-1-0-0-0-0-0-0-0-3--1--4--|
      . .   . . . .   . .   . . . .   . .   . . . .


D#|----------------------------------------------------------|
A#|----------------------------------------------------------|
F#|----------------------------------------------------------|
C#|----------------------------------------------------------|
G#|-4-----4---------7-----4---------5-----4---------7--5--8--|
C#|-2-2-2-2-2-2-2-2-5-2-2-2-2-2-2-2-3-2-2-2-2-2-2-2-5--3--6--|
      . .   . . . .   . .   . . . .   . .   . . . .

Intro:

D#|----------------------------------------------------|
A#|----------------------------------------------------|
F#|----------------------------------------------------|
C#|----------------------------------------------------|
G#|-5--4--4--5--4--4--5--4~---5--4--4--5--4--4--5--4---|
C#|-3--2--2--3--2--2--3--2~---3--2--2--3--2--2--3--2---|

Verse:

D#|-------------------------------------------------------|---------------|
A#|-------------------------------------------------------|---------------|
F#|-------------------------------------------------------|---7---7---7---|
C#|-------------------------------------------------------|---5---5---5---|
G#|----------4/5-4/5----------5-4-7-5----------5---5---5--|-------------2-|
C#|-22222222-2/3-2/3-22222222-3-2-5-3-22222222-3-0-3-0-3--|-0---0---0---0-|
    ........         ........ . . . . ........   .   .      .   .   .





-------------------------------------------------------------------------------
	           Sons Of A Dying World - Born From Pain
-------------------------------------------------------------------------------

ARTIST   : Born From Pain
SONG     : Sons Of A Dying World
ALBUM    : Survival
TABBED BY: h8urlife
TUNING   : Standard  C# G# C# F# A# D#

Intro and Chorus:

D#|------------------------------------------------|
A#|------------------------------------------------|
F#|------------------------------------------------|
C#|-5--4--7----4-7--7-5----------------------------|
G#|---------7----------------------3-2-------------|
C#|--------------------0-0-0-0-0-0-1-0-0-0-0-0-0-0-|
                       . . . . . .     . . . . . .


D#|------------------------------------------------|
A#|------------------------------------------------|
F#|-------------------4----------------------------|
C#|-5--4--7----4-7--7------------------------------|
G#|---------7----------------------3-2-------------|
C#|--------------------0-0-0-0-0-0-1-0-0-0-0-0-0-0-|
                       . . . . . .     . . . . . .

Verse:

D#|-----------------------------------------------------------------|
A#|-----------------------------------------------------------------|
F#|-----------------------------------------------------------|-----|
C#|-----------------------------------------------------------|  ---|
G#|-----------------------------------------------------------|  ---|
C#|-888888000000555500000033335555888800000055550000011331100-|   |
    .........................................................     |
                                                                  |(2x)
                                                                  |
D#|-----------------------------------------------------------|  ---|
A#|-----------------------------------------------------------|  ---|
F#|-----------------------------------------------------------|  ---|
C#|-----------------------------------------------------------|-----|
G#|-----------------------------------------------------------------|
C#|-888888000000555500000033335555888800000033330000000000000-|
    .........................................................


D#|----------------------------------|
A#|----------------------------------|
F#|----------------------------------|
C#|----------------------------------|
G#|-5-5-5-5-5-5-5-5-5-4-4-4-7-7-7----|
C#|-3-3-3-3-3-3-3-3-3-2-2-2-5-5-5----|
    . . . . . . . . . . . . . . .

Chorus:

D#|------------------------------------------------|
A#|------------------------------------------------|
F#|------------------------------------------------|
C#|-5--4--7----4-7--7-5----------------------------|
G#|---------7----------------------3-2-------------|
C#|--------------------0-0-0-0-0-0-1-0-0-0-0-0-0-0-|
                       . . . . . .     . . . . . .


D#|------------------------------------------------|
A#|------------------------------------------------|
F#|-------------------4----------------------------|
C#|-5--4--7----4-7--7------------------------------|
G#|---------7----------------------3-2-------------|
C#|--------------------0-0-0-0-0-0-1-0-0-0-0-0-0-0-|
                       . . . . . .     . . . . . .


Verse:

D#|-----------------------------------------------------------------|
A#|-----------------------------------------------------------------|
F#|-----------------------------------------------------------|-----|
C#|-----------------------------------------------------------|  ---|
G#|-----------------------------------------------------------|  ---|
C#|-888888000000555500000033335555888800000055550000011331100-|   |
    .........................................................     |
                                                                  |(1x)
                                                                  |
D#|-----------------------------------------------------------|  ---|
A#|-----------------------------------------------------------|  ---|
F#|-----------------------------------------------------------|  ---|
C#|-----------------------------------------------------------|-----|
G#|-----------------------------------------------------------------|
C#|-888888000000555500000033335555888800000033330000000000000-|
    .........................................................

D#|----------------------------------|
A#|----------------------------------|
F#|----------------------------------|
C#|----------------------------------|
G#|-5-5-5-5-5-5-5-5-5-4-4-4-7-7-7----|
C#|-3-3-3-3-3-3-3-3-3-2-2-2-5-5-5----|
    . . . . . . . . . . . . . . .

Chorus:

D#|------------------------------------------------|
A#|------------------------------------------------|
F#|------------------------------------------------|
C#|-5--4--7----4-7--7-5----------------------------|
G#|---------7----------------------3-2-------------|
C#|--------------------0-0-0-0-0-0-1-0-0-0-0-0-0-0-|
                       . . . . . .     . . . . . .


D#|------------------------------------------------|
A#|------------------------------------------------|
F#|-------------------4----------------------------|
C#|-5--4--7----4-7--7------------------------------|
G#|---------7----------------------3-2-------------|
C#|--------------------0-0-0-0-0-0-1-0-0-0-0-0-0-0-|
                       . . . . . .     . . . . . .

Bridge:
                (2x)
D#|----------------------------------|
A#|----------------------------------|
F#|----------------------------------|
C#|---------5~--------------7~--5~---|
G#|-2~------3~------2~------5~--3~---|
C#|-0~--0-0-----0-0-0~--0-0----------|
        . .     . .     . .

Under Solo:
                        (2x)
D#|----------------------------------------------------|
A#|----------------------------------------------------|
F#|----------------------------------------------------|
C#|-9--7--10-5--7--10-10-9-----------------------------|
G#|-7--5--8--3--5--8--8--7-------------3-2-------------|
C#|------------------------0-0-0-0-0-0-1-0-0-0-0-0-0-0-|
                           . . . . . .     . . . . . .

Chorus:

D#|------------------------------------------------|
A#|------------------------------------------------|
F#|------------------------------------------------|
C#|-5--4--7----4-7--7-5----------------------------|
G#|---------7----------------------3-2-------------|
C#|--------------------0-0-0-0-0-0-1-0-0-0-0-0-0-0-|
                       . . . . . .     . . . . . .


D#|------------------------------------------------|
A#|------------------------------------------------|
F#|-------------------4----------------------------|
C#|-5--4--7----4-7--7------------------------------|
G#|---------7----------------------3-2-------------|
C#|--------------------0-0-0-0-0-0-1-0-0-0-0-0-0-0-|
                       . . . . . .     . . . . . .



-------------------------------------------------------------------------------
	           The Wolves Are Loose - Born From Pain
-------------------------------------------------------------------------------

ARTIST   : Born From Pain
SONG     : The Wolves Are Loose
ALBUM    : Survival
TABBED BY: h8urlife
TUNING   : B F# B E G# C#


Guitar 1
                          (2x)
C#|-----------------------------------------------------------|
G#|-----------------------------------------------------------|
E |-----------------------------------------------------------|
B |-----------------------------------------------------------|
F#|---0-------------------------------------------------------|
B |---0-------------------------------------------------------|

Guitar 2

C#|-----------------------------------------------------------|
G#|-----------------------------------------------------------|
E |---9h10p9---9----------------------------6-----------------|
B |----------12-12-11h12p11-8-11-8-7----7-8-------------------|
F#|----------------------------------10-----------------------|
B |-----------------------------------------------------------|

G1
                              (1x)
C#|-----------------------------------------------------------|
G#|-----------------------------------------------------------|
E |-----------------------------------------------------------|
B |-----------------------------------------------------------|
F#|---8-------------------------------------------------------|
B |---8-------------------------------------------------------|

G2

C#|-----------------------------------------------------------|
G#|-----------------------------------------------------------|
E |---9h10p9---9----------------------------6-----------------|
B |----------12-12-11h12p11-8-11-8-7----7-8-------------------|
F#|----------------------------------10-----------------------|
B |-----------------------------------------------------------|

G1

C#|-----------------------------------------------------------|
G#|-----------------------------------------------------------|
E |-----------------------------------------------------------|
B |-----------------------------------------------------------|
F#|---4-------------------------------------------------------|
B |---4-------------------------------------------------------|

G2

C#|-----------------------------------------------------------|
G#|-----------------------------------------------------------|
E |---9h10p9---9----------------------------6-----------------|
B |----------12-12-11h12p11-8-11-8-7----7-8-------------------|
F#|----------------------------------10-----------------------|
B |-----------------------------------------------------------|
                         -Repeat whole 2x-
--------------------------------------------------------------------
Guitar 1
                          (2x)
C#|-----------------------------------------------------------|
G#|-----------------------------------------------------------|
E |-----------------------------------------------------------|
B |-----------------------------------------------------------|
F#|---0-------------------------------------------------------|
B |---0-------------------------------------------------------|

Guitar 2

C#|-----------------------------------------------------------|
G#|-----------------------------------------------------------|
E |---9h10p9---9----------------------------6-----------------|
B |----------12-12-11h12p11-8-11-8-7----7-8-------------------|
F#|----------------------------------10-----------------------|
B |-----------------------------------------------------------|

Guitar 3

C#|-----------------------------------------------------------|
G#|---8h10p8---8------------------------5---------------------|
E |----------10-10-9h10p9-6-9-6-5---5-6-----------------------|
B |-------------------------------8---------------------------|
F#|-----------------------------------------------------------|
B |-----------------------------------------------------------|

G1
                             (1x)
C#|-----------------------------------------------------------|
G#|-----------------------------------------------------------|
E |-----------------------------------------------------------|
B |-----------------------------------------------------------|
F#|---8-------------------------------------------------------|
B |---8-------------------------------------------------------|

G2

C#|-----------------------------------------------------------|
G#|-----------------------------------------------------------|
E |---9h10p9---9----------------------------6-----------------|
B |----------12-12-11h12p11-8-11-8-7----7-8-------------------|
F#|----------------------------------10-----------------------|
B |-----------------------------------------------------------|

G3

C#|-----------------------------------------------------------|
G#|---8h10p8---8------------------------5---------------------|
E |----------10-10-9h10p9-6-9-6-5---5-6-----------------------|
B |-------------------------------8---------------------------|
F#|-----------------------------------------------------------|
B |-----------------------------------------------------------|

G1

C#|-----------------------------------------------------------|
G#|-----------------------------------------------------------|
E |-----------------------------------------------------------|
B |-----------------------------------------------------------|
F#|---11------------------------------------------------------|
B |---11------------------------------------------------------|

G2

C#|-----------------------------------------------------------|
G#|-----------------------------------------------------------|
E |---9h10p9---9----------------------------6-----------------|
B |----------12-12-11h12p11-8-11-8-7----7-8-------------------|
F#|----------------------------------10-----------------------|
B |-----------------------------------------------------------|

G3

C#|-----------------------------------------------------------|
G#|---8h10p8---8------------------------5---------------------|
E |----------10-10-9h10p9-6-9-6-5---5-6-----------------------|
B |-------------------------------8---------------------------|
F#|-----------------------------------------------------------|
B |-----------------------------------------------------------|

Refrain:
                            (4x)
C#|-----------------------------------------------------------|
G#|-----------------------------------------------------------|
E |-----------------------------------------------------------|
B |--------------------------------6-7-6----------------------|
F#|---8-5-7--------------8-5-7-----4-5-4----------------------|
B |---8-5-7-7--7-7-7-7---8-5-7-7-7----------------------------|
               . . . .         . .

                            (4x)
C#|-----------------------------------------------------------|
G#|-----------------------------------------------------------|
E |-----------------------------------------------------------|
B |---10-9-6-7------------------------------------------------|
F#|---8--7-4-5------------------------------------------------|
B |------------0-0-0-0-0-0-0-0-0-0-0-0-0-0--------------------|
               . . . . . . . . . . . . . .

----------------------------------------------------------------
Guitar 1
                          (2x)
C#|-----------------------------------------------------------|
G#|-----------------------------------------------------------|
E |-----------------------------------------------------------|
B |-----------------------------------------------------------|
F#|---0-------------------------------------------------------|
B |---0-------------------------------------------------------|

Guitar 2

C#|-----------------------------------------------------------|
G#|-----------------------------------------------------------|
E |---9h10p9---9----------------------------6-----------------|
B |----------12-12-11h12p11-8-11-8-7----7-8-------------------|
F#|----------------------------------10-----------------------|
B |-----------------------------------------------------------|

G1
                             (1x)
C#|-----------------------------------------------------------|
G#|-----------------------------------------------------------|
E |-----------------------------------------------------------|
B |-----------------------------------------------------------|
F#|---8-------------------------------------------------------|
B |---8-------------------------------------------------------|

G2

C#|-----------------------------------------------------------|
G#|-----------------------------------------------------------|
E |---9h10p9---9----------------------------6-----------------|
B |----------12-12-11h12p11-8-11-8-7----7-8-------------------|
F#|----------------------------------10-----------------------|
B |-----------------------------------------------------------|

G3

C#|-----------------------------------------------------------|
G#|---8h10p8---8------------------------5---------------------|
E |----------10-10-9h10p9-6-9-6-5---5-6-----------------------|
B |-------------------------------8---------------------------|
F#|-----------------------------------------------------------|
B |-----------------------------------------------------------|

G1

C#|-----------------------------------------------------------|
G#|-----------------------------------------------------------|
E |-----------------------------------------------------------|
B |-----------------------------------------------------------|
F#|---11------------------------------------------------------|
B |---11------------------------------------------------------|

G2

C#|-----------------------------------------------------------|
G#|-----------------------------------------------------------|
E |---9h10p9---9----------------------------6-----------------|
B |----------12-12-11h12p11-8-11-8-7----7-8-------------------|
F#|----------------------------------10-----------------------|
B |-----------------------------------------------------------|

G3

C#|-----------------------------------------------------------|
G#|---8h10p8---8------------------------5---------------------|
E |----------10-10-9h10p9-6-9-6-5---5-6-----------------------|
B |-------------------------------8---------------------------|
F#|-----------------------------------------------------------|
B |-----------------------------------------------------------|

----------------------------------------------------------------------
                                 (4x)
C#|-------------------------------------------------------------------|
G#|-------------------------------------------------------------------|
E |-------------------------------------------------------------------|
B |---------------------------6-7-9-10-----------------------10-9-7-6-|
F#|---------------------------4-5-7-8------------------------8--7-5-4-|
B |---0-0-000-0-0-000-0-0-000----------0-000-0-0-000-0-0-000----------|
      . . ... . . ... . . ...          . ... . . ... . . ...

                           (4x)
C#|-----------------------------------------------------------|
G#|-----------------------------------------------------------|
E |-----------------------------------------------------------|
B |--------------------------------6-7-6----------------------|
F#|---8-5-7--------------8-5-7-----4-5-4----------------------|
B |---8-5-7-7--7-7-7-7---8-5-7-7-7----------------------------|
               . . . .         . .

                            (4x)
C#|-----------------------------------------------------------|
G#|-----------------------------------------------------------|
E |-----------------------------------------------------------|
B |---10-9-6-7------------------------------------------------|
F#|---8--7-4-5------------------------------------------------|
B |------------0-0-0-0-0-0-0-0-0-0-0-0-0-0--------------------|
               . . . . . . . . . . . . . .

                            (1x)
C#|-----------------------------------------------------------|
G#|-----------------------------------------------------------|
E |-----------------------------------------------------------|
B |---10-9-6-7------------------------------------------------|
F#|---8--7-4-5------------------------------------------------|
B |-----------------------------------------------------------|



-------------------------------------------------------------------------------
	                 Never Die - Born From Pain
-------------------------------------------------------------------------------

ARTIST   : Born From Pain
SONG     : Never Die
ALBUM    : Survival
TABBED BY: h8urlife
TUNING   : Standard  C# G# C# F# A# D#


Intro and Verse:

D#|--------------------------------------|
A#|--------------------------------------|
F#|--------------------------------------|
C#|-9-7-----10-8------12-9---------------|
G#|-7-5------8-6------10-7---------------|
C#|-----0000-----0000------000000000000--|
        ....     ....      ............

D#|--------------------------------------|
A#|--------------------------------------|
F#|--------------------------------------|
C#|-9-7-----10-8-----12-9----------------|
G#|-7-5------8-6-----10-7----------------|
C#|-----0-0------0-0------0-0-0-0-0-0----|
        . .      . .      . . . . . .

                 (4x)                            (2x)
D#|-----------------------------------|-------------------------|
A#|-----------------------------------|-------------------------|
F#|-----------------------------------|-------------------------|
C#|-----------------------------------|--6-3--3--3--3-3-4-4-4---|
G#|--6-3---3-----3-----3-----3-4-4-4--|-------------------------|
C#|--4-1-1-1-1-1-1-1-1-1-1-1-1-2-2-2--|-------------------------|
         .   . .   . .   . .

Verse:

D#|--------------------------------------|
A#|--------------------------------------|
F#|--------------------------------------|
C#|-9-7-----10-8------12-9---------------|
G#|-7-5------8-6------10-7---------------|
C#|-----0000-----0000------000000000000--|
        ....     ....      ............

D#|--------------------------------------|
A#|--------------------------------------|
F#|--------------------------------------|
C#|-9-7-----10-8-----12-9----------------|
G#|-7-5------8-6-----10-7----------------|
C#|-----0-0------0-0------0-0-0-0-0-0----|
        . .      . .      . . . . . .


                 (4x)                            (2x)
D#|-----------------------------------|-------------------------|
A#|-----------------------------------|-------------------------|
F#|-----------------------------------|-------------------------|
C#|-----------------------------------|--6-3--3--3--3-3-4-4-4---|
G#|--6-3---3-----3-----3-----3-4-4-4--|-------------------------|
C#|--4-1-1-1-1-1-1-1-1-1-1-1-1-2-2-2--|-------------------------|
         .   . .   . .   . .

Under Solo:
[ Tab from: http://www.guitaretab.com/b/born-from-pain/186108.html ]
D#|-----------------------------------|
A#|-----------------------------------|
F#|-----------------------------------|
C#|-----------------------------------|
G#|--6-3---3-----3-----3-----3-4-4-4--|
C#|--4-1-1-1-1-1-1-1-1-1-1-1-1-2-2-2--|
         .   . .   . .   . .

D#|--------------------------------------|
A#|--------------------------------------|
F#|--------------------------------------|
C#|-9-7-----10-8-----12-9----------------|
G#|-7-5------8-6-----10-7----------------|
C#|-----0-0------0-0------0-0-0-0-0-0----|
        . .      . .      . . . . . .


Breakdown:

D#|-----------------------------------------------------------|
A#|-----------------------------------------------------------|
F#|----------------------10-8-8-----------------------11-9-9--|
C#|----------------------10-8-8-----------------------11-9-9--|
G#|-3-2--2---------3-2-2--8-6-6--3-2--2---------3-2-2--9-7-7--|
C#|-1-0--0-0-0-0-0-1-0-0--8-6-6--1-0--0-0-0-0-0-1-0-0--9-7-7--|
           . . . .                      . . . .





-------------------------------------------------------------------------------
	           Final Collapse - Born From Pain
-------------------------------------------------------------------------------

ARTIST   : Born From Pain
SONG     : Final Collapse
ALBUM    : Survival
TABBED BY: h8urlife
TUNING   : B F# B E G# C#

C#|----------------------------------------------------|
G#|----------------------------------------------------|
E |----------------------------------------------------|
B |----------------------------------------------------|
F#|-------5-5-5-------4-4-4-------------------8-8-8----|
B |-0-0-0-------0-0-0-------0-0-0-8-8-8-0-0-0----------|

Verse:

C#|----------------------------------------------|
G#|----------------------------------------------|
E |----------------------------------------------|
B |----------------------------------------------|
F#|-0~----8-8-8--0~----8-8-8--0~----8-8-8--0~----|
B |-0~-----------0~-----------0~-----------0~----|

Chorus

C#|----------------------------------------------------|
G#|----------------------------------------------------|
E |----------------------------------------------------|
B |----------------------------------------------------|
F#|-------5-5-5-------4-4-4-------------------8-8-8----|
B |-0-0-0-------0-0-0-------0-0-0-8-8-8-0-0-0----------|

Verse:

C#|----------------------------------------------|
G#|----------------------------------------------|
E |----------------------------------------------|
B |----------------------------------------------|
F#|-0~----8-8-8--0~----8-8-8--0~----8-8-8--0~----|
B |-0~-----------0~-----------0~-----------0~----|


Chorus

C#|----------------------------------------------------|
G#|----------------------------------------------------|
E |----------------------------------------------------|
B |----------------------------------------------------|
F#|-------5-5-5-------4-4-4-------------------8-8-8----|
B |-0-0-0-------0-0-0-------0-0-0-8-8-8-0-0-0----------|


Breakdown:

C#|-------------------------------------------------|
G#|-------------------------------------------------|
E |-------------------------------------------------|
B |-------------------------------------------------|
F#|-----------1-0-0-------------------0-1-1-1-1-1---|
B |-0--0--0-0-1-0-0-0-0-0--0--0--0--0-0-1-1-1-1-1---|
    .  .  . .       . . .  .  .  .  .


Chorus and End:

C#|----------------------------------------------------|
G#|----------------------------------------------------|
E |----------------------------------------------------|
B |----------------------------------------------------|
F#|-------5-5-5-------4-4-4-------------------8-8-8----|
B |-0-0-0-------0-0-0-------0-0-0-8-8-8-0-0-0----------|




-------------------------------------------------------------------------------
	                 Endgame - Born From Pain
-------------------------------------------------------------------------------

ARTIST   : Born From Pain
SONG     : Endgame
ALBUM    : Survival
TABBED BY: h8urlife
TUNING   : Standard  C# G# C# F# A# D#

Intro:

D#|-----------------------------------------|
A#|-----------------------------------------|
F#|-----------------------------------------|
C#|-----------------------------------------|
G#|-2--5-3--3-5--3-6-6--2--5-3--3-5--6-3-3--|
C#|-0--3-1--1-3--1-4-4--0--3-1--1-3--4-1-1--|


Verse:

D#|-----------------------------------------------------------------------------|
A#|-----------------------------------------------------------------------------|
F#|-----------------------------------------------------------------------------|
C#|-----------------------------------------------------------------------------|
G#|-2--------5-3--------3-5--------3-6-6--2--------5-3--------3-5--------6-3-3--|
C#|-0-000000-3-1-000000-1-3-000000-1-4-4--0-000000-3-1-000000-1-3-000000-4-1-1--|
      ......     ......     ......          ......     ......     ......


D#|---------------------------------------------------------------------------|
A#|---------------------------------------------------------------------------|
F#|---------------------------------------------------------------------------|
C#|---------------------------------------------------------------------------|
G#|-2--------5-3--------3-5--------3-6-6--2--------5-3--------3-5-5-6-6-3-3---|
C#|-0-000000-3-1-000000-1-3-000000-1-4-4--0-000000-3-1-000000-1-3-3-4-4-1-1---|
      ......     ......     ......          ......     ......

                        (2x)
D#|------------------------------------------------------|
A#|------------------------------------------------------|
F#|------------------------------------------------------|
C#|------------------------------------------------------|
G#|-6------6------6------6--6--6------6------6--6--7--7--|
C#|-4444444444444444444444--4--444444444444444--4--5--5--|
     ...... ...... ......       ...... ......


Intro:

D#|-----------------------------------------|
A#|-----------------------------------------|
F#|-----------------------------------------|
C#|-----------------------------------------|
G#|-2--5-3--3-5--3-6-6--2--5-3--3-5--6-3-3--|
C#|-0--3-1--1-3--1-4-4--0--3-1--1-3--4-1-1--|

Verse:

D#|-----------------------------------------------------------------------------|
A#|-----------------------------------------------------------------------------|
F#|-----------------------------------------------------------------------------|
C#|-----------------------------------------------------------------------------|
G#|-2--------5-3--------3-5--------3-6-6--2--------5-3--------3-5--------6-3-3--|
C#|-0-000000-3-1-000000-1-3-000000-1-4-4--0-000000-3-1-000000-1-3-000000-4-1-1--|
      ......     ......     ......          ......     ......     ......


D#|---------------------------------------------------------------------------|
A#|---------------------------------------------------------------------------|
F#|---------------------------------------------------------------------------|
C#|---------------------------------------------------------------------------|
G#|-2--------5-3--------3-5--------3-6-6--2--------5-3--------3-5-5-6-6-3-3---|
C#|-0-000000-3-1-000000-1-3-000000-1-4-4--0-000000-3-1-000000-1-3-3-4-4-1-1---|
      ......     ......     ......          ......     ......


                        (2x)
D#|------------------------------------------------------|
A#|------------------------------------------------------|
F#|------------------------------------------------------|
C#|------------------------------------------------------|
G#|-6------6------6------6--6--6------6------6--6--7--7--|
C#|-4444444444444444444444--4--444444444444444--4--5--5--|
     ...... ...... ......       ...... ......


Breakdown:

D#|-----------------------------|
A#|-----------------------------|
F#|-----------------------------|
C#|-----------------------------|
G#|-2-2-2-2-2-2-2-2-2-2-2-2-2-2-|
C#|-0-0-0-0-0-0-0-0-0-0-0-0-0-0-|
    . . . . . . . . . . . . . .


D#|------------------------------------------------------------------------|
A#|------------------------------------------------------------------------|
F#|------------------------------------------------------------------------|
C#|------------------------------------------------------------------6-6---|
G#|-------9-------8-------7-------5-5--------9-------8-------7-------------|
C#|-0-0-0---0-0-0---0-0-0---0-0-0------0-0-0---0-0-0---0-0-0---0-0-0-------|
    . . .   . . .   . . .   . . .      . . .   . . .   . . .   . . .

Intro:

D#|-----------------------------------------|
A#|-----------------------------------------|
F#|-----------------------------------------|
C#|-----------------------------------------|
G#|-2--5-3--3-5--3-6-6--2--5-3--3-5--6-3-3--|
C#|-0--3-1--1-3--1-4-4--0--3-1--1-3--4-1-1--|

Verse:

D#|-----------------------------------------------------------------------------|
A#|-----------------------------------------------------------------------------|
F#|-----------------------------------------------------------------------------|
C#|-----------------------------------------------------------------------------|
G#|-2--------5-3--------3-5--------3-6-6--2--------5-3--------3-5--------6-3-3--|
C#|-0-000000-3-1-000000-1-3-000000-1-4-4--0-000000-3-1-000000-1-3-000000-4-1-1--|
      ......     ......     ......          ......     ......     ......


D#|---------------------------------------------------------------------------|
A#|---------------------------------------------------------------------------|
F#|---------------------------------------------------------------------------|
C#|---------------------------------------------------------------------------|
G#|-2--------5-3--------3-5--------3-6-6--2--------5-3--------3-5-5-6-6-3-3---|
C#|-0-000000-3-1-000000-1-3-000000-1-4-4--0-000000-3-1-000000-1-3-3-4-4-1-1---|
      ......     ......     ......          ......     ......


                        (2x)
D#|------------------------------------------------------|
A#|------------------------------------------------------|
F#|------------------------------------------------------|
C#|------------------------------------------------------|
G#|-6------6------6------6--6--6------6------6--6--7--7--|
C#|-4444444444444444444444--4--444444444444444--4--5--5--|
     ...... ...... ......       ...... ......

End:

D#|------------------------|
A#|------------------------|
F#|------------------------|
C#|------------------------|
G#|-2--5-3--3-5--3-6-6--2--|
C#|-0--3-1--1-3--1-4-4--0--|





-------------------------------------------------------------------------------
	                 Zeitgeist - Born From Pain
-------------------------------------------------------------------------------

ARTIST   : Born From Pain
SONG     : Zeitgeist
ALBUM    : Survival
TABBED BY: h8urlife
TUNING   : Standard  C# G# C# F# A# D#

Verse:

D#|-------------------------------------------------------------------------------|
A#|-------------------------------------------------------------------------------|
F#|-------------------------------------------9-8---------------------------------|
C#|-5-4---------------5-4---------------------7-6---------------------------------|
G#|-3-2---------------3-2---------4-6---------------------------------------------|
C#|-----4-4-4-4-4-4-4-----4-4-4-4-2-4-4-4-4-4-----4-4-4-4-4-4-4-4-4-4-4-4-4-4-4-4-|
        . . . . . . .     . . . .     . . . .     . . . . . . . . . . . . . . . .

D#|-------------------------------------------------------------------------------|
A#|-------------------------------------------------------------------------------|
F#|-------------------------------------------9-6---------------------------------|
C#|-5-4---------------5-4---------------------7-4---------------------------------|
G#|-3-2---------------3-2---------4-6---------------------------------------------|
C#|-----4-4-4-4-4-4-4-----4-4-4-4-2-4-4-4-4-4-----2-2-2-2-2-2-2-2-2-2-2-2-2-2-2-2-|
        . . . . . . .     . . . .     . . . .     . . . . . . . . . . . . . . . .

Guitar 2:

D#|-8-7-----------8-7-------------------------------------------|
A#|------9-9-9-9-------9-9-9-9--9-10-9--9-9-9-9--9--9-9-9-9-----|
F#|-------------------------------------------------------------|
C#|-------------------------------------------------------------|
G#|-------------------------------------------------------------|
C#|-------------------------------------------------------------|


D#|-8-7-----------8-7-------------------------------------------|
A#|------9-9-9-9-------9-9-9-9--9-10-7--7-7-7-7--7--7-7-7-7-----|
F#|-------------------------------------------------------------|
C#|-------------------------------------------------------------|
G#|-------------------------------------------------------------|
C#|-------------------------------------------------------------|


Chorus:

D#|--------------------------------------------------------------------------------|
A#|--------------------------------------------------------------------------------|
F#|---------9-8~--------------9-6~--------------9-8~--------------9-6--------------|
C#|---------7-6~--5-4---------7-4~--5-4---------7-6~--5-4---------7-4--------------|
G#|-6--7-6--------3-2-6--7-6--------3-2-6--7-6--------3-2-6--7-6-------------------|
C#|-4--5-4------------4--5-4------------4--5-4------------4--5-4-------2-2-2-2-2-2-|
                                                                       . . . . . .


Verse:

D#|-------------------------------------------------------------------------------|
A#|-------------------------------------------------------------------------------|
F#|-------------------------------------------9-8---------------------------------|
C#|-5-4---------------5-4---------------------7-6---------------------------------|
G#|-3-2---------------3-2---------4-6---------------------------------------------|
C#|-----4-4-4-4-4-4-4-----4-4-4-4-2-4-4-4-4-4-----4-4-4-4-4-4-4-4-4-4-4-4-4-4-4-4-|
        . . . . . . .     . . . .     . . . .     . . . . . . . . . . . . . . . .

D#|-------------------------------------------------------------------------------|
A#|-------------------------------------------------------------------------------|
F#|-------------------------------------------9-6---------------------------------|
C#|-5-4---------------5-4---------------------7-4---------------------------------|
G#|-3-2---------------3-2---------4-6---------------------------------------------|
C#|-----4-4-4-4-4-4-4-----4-4-4-4-2-4-4-4-4-4-----2-2-2-2-2-2-2-2-2-2-2-2-2-2-2-2-|
        . . . . . . .     . . . .     . . . .     . . . . . . . . . . . . . . . .

Guitar 2:

D#|-8-7-----------8-7-------------------------------------------|
A#|------9-9-9-9-------9-9-9-9--9-10-9--9-9-9-9--9--9-9-9-9-----|
F#|-------------------------------------------------------------|
C#|-------------------------------------------------------------|
G#|-------------------------------------------------------------|
C#|-------------------------------------------------------------|


D#|-8-7-----------8-7-------------------------------------------|
A#|------9-9-9-9-------9-9-9-9--9-10-7--7-7-7-7--7--7-7-7-7-----|
F#|-------------------------------------------------------------|
C#|-------------------------------------------------------------|
G#|-------------------------------------------------------------|
C#|-------------------------------------------------------------|

Chorus:

D#|--------------------------------------------------------------------|
A#|--------------------------------------------------------------------|
F#|---------9-8~--------------9-6~--------------9-8~--------------9-6--|
C#|---------7-6~--5-4---------7-4~--5-4---------7-6~--5-4---------7-4--|
G#|-6--7-6--------3-2-6--7-6--------3-2-6--7-6--------3-2-6--7-6-------|
C#|-4--5-4------------4--5-4------------4--5-4------------4--5-4-------|

D#|---------------------------------|
A#|---------------------------------|
F#|---------------------------------|
C#|---------------------------------|
G#|---------------------------------|
C#|-2-2-2-2-2-2-2-2-1-1-1-1-1-1-1---|
    . . . . . . . . . . . . . . .

Breakdown:

D#|-----------------------------------------------------------------|
A#|-----------------------------------------------------------------|
F#|-----------------------------------------------------------------|
C#|-----------------------------------------------------------------|
G#|-----------------------------------------------------------------|
C#|-000-000-000-000-000-000-000-000-000-000-000-000-000-000-000-000-|
    ... ... ... ... ... ... ... ... ... ... ... ... ... ... ... ...

Verse:

D#|-------------------------------------------------------------------------------|
A#|-------------------------------------------------------------------------------|
F#|-------------------------------------------9-8---------------------------------|
C#|-5-4---------------5-4---------------------7-6---------------------------------|
G#|-3-2---------------3-2---------4-6---------------------------------------------|
C#|-----4-4-4-4-4-4-4-----4-4-4-4-2-4-4-4-4-4-----4-4-4-4-4-4-4-4-4-4-4-4-4-4-4-4-|
        . . . . . . .     . . . .     . . . .     . . . . . . . . . . . . . . . .

D#|-------------------------------------------------------------------------------|
A#|-------------------------------------------------------------------------------|
F#|-------------------------------------------9-6---------------------------------|
C#|-5-4---------------5-4---------------------7-4---------------------------------|
G#|-3-2---------------3-2---------4-6---------------------------------------------|
C#|-----4-4-4-4-4-4-4-----4-4-4-4-2-4-4-4-4-4-----2-2-2-2-2-2-2-2-2-2-2-2-2-2-2-2-|
        . . . . . . .     . . . .     . . . .     . . . . . . . . . . . . . . . .


Guitar 2:

D#|-8-7-----------8-7-------------------------------------------|
A#|------9-9-9-9-------9-9-9-9--9-10-9--9-9-9-9--9--9-9-9-9-----|
F#|-------------------------------------------------------------|
C#|-------------------------------------------------------------|
G#|-------------------------------------------------------------|
C#|-------------------------------------------------------------|


D#|-8-7-----------8-7-------------------------------------------|
A#|------9-9-9-9-------9-9-9-9--9-10-7--7-7-7-7--7--7-7-7-7-----|
F#|-------------------------------------------------------------|
C#|-------------------------------------------------------------|
G#|-------------------------------------------------------------|
C#|-------------------------------------------------------------|


End:

D#|---------------|
A#|---------------|
F#|---------9-8~--|
C#|---------7-6~--|
G#|-6--7-6--------|
C#|-4--5-4--------|





-------------------------------------------------------------------------------
			  The Hydra - Born From Pain
-------------------------------------------------------------------------------

ARTIST   : Born From Pain
SONG     : The Hydra
ALBUM    : Survival
TABBED BY: h8urlife
TUNING   : B F# B E G# C#


Verse:
               (7x)
C#|---------------------------------|
G#|---------------------------------|
E |-5-----8-----7-------------------|
B |-5-----8-----7-------------------|
F#|-3-----6-----5-------------------|
B |---0-0---0-0---0-0-0-0-0-0-0-0-0-|
      . .   . .   . . . . . . . . .


                  (1x)
C#|----------------------------------------|
G#|----------------------------------------|
E |-------2~--------2~--------2~--------2~-|
B |-------2~--------2~--------2~--------2~-|
F#|-1--1--0~--1--1--0~--1--1--0~--1--1--0~-|
B |-1--1------1--1------1--1------1--1-----|

Verse:
                (8x)
C#|---------------------------------|
G#|---------------------------------|
E |-5-----8-----7-------------------|
B |-5-----8-----7-------------------|
F#|-3-----6-----5-------------------|
B |---0-0---0-0---0-0-0-0-0-0-0-0-0-|
      . .   . .   . . . . . . . . .


                  (1x)
C#|----------------------------------------|
G#|----------------------------------------|
E |-------2~--------2~--------2~--------2~-|
B |-------2~--------2~--------2~--------2~-|
F#|-1--1--0~--1--1--0~--1--1--0~--1--1--0~-|
B |-1--1------1--1------1--1------1--1-----|


                  (3x)
C#|---------------------------------------|-----------------------------|
G#|---------------------------------------|-----------------------------|
E |---------------------------------------|-----------------------------|
B |---------------------------------------|-4--4-5-4-8-7---4--4-5-4-8-7-|
F#|-0--0-1-0-4-3---0--0-1-0-4-3-----------|-----------------------------|
B |-0--0-1-0-4-3---0--0-1-0-4-3--33333333-|-----------------------------|
                                 ........

Verse:

C#|---------------------------------|
G#|---------------------------------|
E |-5-----8-----7-------------------|
B |-5-----8-----7-------------------|
F#|-3-----6-----5-------------------|
B |---0-0---0-0---0-0-0-0-0-0-0-0-0-|
  |   . .   . .   . . . . . . . . .
  |
  |      (4x)            (4x)
C#|------------------|-----------|
G#|------------------|-----------|
E |------------------|-----------|
B |------------------|-----------|
F#|-7-6-7-10--7-10-8-|-12--10--7-|
B |------------------|-----------|


                  (1x)
C#|----------------------------------------|
G#|----------------------------------------|
E |-------2~--------2~--------2~--------2~-|
B |-------2~--------2~--------2~--------2~-|
F#|-1--1--0~--1--1--0~--1--1--0~--1--1--0~-|
B |-1--1------1--1------1--1------1--1-----|


                  (3x)
C#|---------------------------------------|-----------------------------|
G#|---------------------------------------|-----------------------------|
E |---------------------------------------|-----------------------------|
B |---------------------------------------|-4--4-5-4-8-7---4--4-5-4-8-7-|
F#|-0--0-1-0-4-3---0--0-1-0-4-3-----------|-----------------------------|
B |-0--0-1-0-4-3---0--0-1-0-4-3--33333333-|-----------------------------|
                                 ........





-------------------------------------------------------------------------------
	                 Zero Hour - Born From Pain
-------------------------------------------------------------------------------

ARTIST   : Born From Pain
SONG     : Zero Hour
ALBUM    : Survival
TABBED BY: h8urlife
TUNING   : Standard  C# G# C# F# A# D#


Intro:

D#|------------------------------------------------------------|
A#|------------------------------------------------------------|
F#|------------------------------------------------------|-----|
C#|-2-------2-----------------2-------2------------------|  ---|
G#|-2-------2-----------------2-------2------------------|  ---|
C#|---00000---00000--11114444---00000---00000--11113333--|  ---|
      .....   .....  ........   .....   .....  ........      |
                                                             |
D#|------------------------------------------------------|  ---|
A#|------------------------------------------------------|  ---|
F#|------------------------------------------------------|  ---|
C#|-1-------1-----------------1-------1------------------|-----|
G#|-1-------1-----------------1-------1------------------------|
C#|---00000---00000--44441111---00000---00000--44441111--------|
      .....   .....  ........   .....   .....  ........


Verse:
                 (1x)
D#|-------------------------------------|
A#|-------------------------------------|
F#|-------------------------------------|
C#|-------------------------10-9-12-13--|
G#|-2--5--4--7-6-7-2~-5~-4~--8-7-10-11--|
C#|-0--3--2--5-4-5-0~-3~-2~-------------|

                             (4x)
D#|--------------------------------------------------------------|
A#|--------------------------------------------------------------|
F#|--------------------------------------------------------------|
C#|--------------------------------------------------10-9-12-13--|
G#|-2------5------4-------7-6-7-2------5------4-------8-7-10-11--|
C#|-000000030000002000000-5-4-5-000000030000002000000------------|
     ...... ...... ......        ...... ...... ......

                                   (1x)
D#|--------------------------------------------------------------------------|
A#|--------------------------------------------------------------------------|
F#|--------------------------------------------------------------------------|
C#|------------------------------------------10-9-12-13----------------------|
G#|-8-7-7-7-7-8-6-6-6-6-2------5------4-------8-7-10-11--8-7-7-7-7-8-6-6-6-6-|
C#|-6/5-5-5-5-6/4-4-4-4-000000030000002000000------------6/5-5-5-5-6/4-4-4-4-|
                         ...... ...... ......

Verse:
                 (1x)
D#|-------------------------------------|
A#|-------------------------------------|
F#|-------------------------------------|
C#|-------------------------10-9-12-13--|
G#|-2--5--4--7-6-7-2~-5~-4~--8-7-10-11--|
C#|-0--3--2--5-4-5-0~-3~-2~-------------|

                             (2x)
D#|--------------------------------------------------------------|
A#|--------------------------------------------------------------|
F#|--------------------------------------------------------------|
C#|--------------------------------------------------10-9-12-13--|
G#|-2------5------4-------7-6-7-2------5------4-------8-7-10-11--|
C#|-000000030000002000000-5-4-5-000000030000002000000------------|
     ...... ...... ......        ...... ...... ......

                                  (1x)
D#|--------------------------------------------------------------------------|
A#|--------------------------------------------------------------------------|
F#|--------------------------------------------------------------------------|
C#|------------------------------------------10-9-12-13----------------------|
G#|-8-7-7-7-7-8-6-6-6-6-2------5------4-------8-7-10-11--8-7-7-7-7-8-6-6-6-6-|
C#|-6/5-5-5-5-6/4-4-4-4-000000030000002000000------------6/5-5-5-5-6/4-4-4-4-|
                         ...... ...... ......


End:

D#|------------------------------------------------------------|
A#|------------------------------------------------------------|
F#|------------------------------------------------------|-----|
C#|-2-------2-----------------2-------2------------------|  ---|
G#|-2-------2-----------------2-------2------------------|  ---|
C#|---00000---00000--11114444---00000---00000--11113333--|  ---|
      .....   .....  ........   .....   .....  ........      |
                                                             |
D#|------------------------------------------------------|  ---|
A#|------------------------------------------------------|  ---|
F#|------------------------------------------------------|  ---|
C#|-1-------1-----------------1-------1------------------|-----|
G#|-1-------1-----------------1-------1------------------------|
C#|---00000---00000--44441111---00000---00000--44441111--------|
      .....   .....  ........   .....   .....  ........




-------------------------------------------------------------------------------
			  Under False Flag - Born From Pain
-------------------------------------------------------------------------------

ARTIST   : Born From Pain
SONG     : Under False Flag
ALBUM    : Survival
TABBED BY: h8urlife
TUNING   : B F# B E G# C#

Verse:
                           (6x)
C#|-----------------------------------------------------------|
G#|-----------------------------------------------------------|
E |-----------------------------------------------------------|
B |-------------------------------------------------------3-2-|
F#|-2-1-------------2-1-------------2-1--------------4-3--1-0-|
B |-2-1-1-1-1-1-1-1-2-1-1-1-1-1-1-1-2-1-1-1-1-1-1-1--4-3------|
        . . . . . .     . . . . . .     . . . . . .


Refrain:
                    (1x)
C#|-------------------------------------------|
G#|-------------------------------------------|
E |-8---7-------7---5-------8---7-------3---5-|
B |---------7-----------7-----------7---------|
F#|-6---5-------5---3-------6---5-------5---3-|
B |---------7-----------7-----------7---------|


Verse:
                           (2x)
C#|-----------------------------------------------------------|
G#|-----------------------------------------------------------|
E |-----------------------------------------------------------|
B |-------------------------------------------------------3-2-|
F#|-2-1-------------2-1-------------2-1--------------4-3--1-0-|
B |-2-1-1-1-1-1-1-1-2-1-1-1-1-1-1-1-2-1-1-1-1-1-1-1--4-3------|
        . . . . . .     . . . . . .     . . . . . .


Refrain:
                    (1x)
C#|-------------------------------------------|
G#|-------------------------------------------|
E |-8---7-------7---5-------8---7-------3---5-|
B |---------7-----------7-----------7---------|
F#|-6---5-------5---3-------6---5-------5---3-|
B |---------7-----------7-----------7---------|


            (2x)
C#|------------------------|
G#|------------------------|
E |------------------------|
B |-12---11--7---10--9---7-|
F#|-10---9---5---8---7---5-|
B |------------------------|

Breakdown:

             (11x)
C#|----------------------------|
G#|----------------------------|
E |----------------------------|
B |-----------------7-5--8-5-8-|
F#|-------1-----0---5-3--6-3-6-|
B |-0-0-0-1-0-0-0-0------------|
    . . .   . .   .


Refrain:
                    (1x)
C#|-------------------------------------------|
G#|-------------------------------------------|
E |-8---7-------7---5-------8---7-------3---5-|
B |---------7-----------7-----------7---------|
F#|-6---5-------5---3-------6---5-------5---3-|
B |---------7-----------7-----------7---------|


            (2x)
C#|------------------------|
G#|------------------------|
E |------------------------|
B |-12---11--7---10--9---7-|
F#|-10---9---5---8---7---5-|
B |------------------------|


End:
                           (2x)
C#|-----------------------------------------------------------|-----|
G#|-----------------------------------------------------------|-----|
E |-----------------------------------------------------------|-----|
B |-------------------------------------------------------3-2-|-----|
F#|-2-1-------------2-1-------------2-1--------------4-3--1-0-|-2-1-|
B |-2-1-1-1-1-1-1-1-2-1-1-1-1-1-1-1-2-1-1-1-1-1-1-1--4-3------|-2-1-|
        . . . . . .     . . . . . .     . . . . . .

-----------------------------------------------------------------------------------------------


Born From Pain rulez!!!

www.bornfrompain.com

www.myspace.com/bornfrompain


                                 THE END!!!
Related for Survival tab