Song name
# A B C D E F G H I J K L M N O P Q R S T U V W X Y Z

Born From Pain - State Of Mind tab

-------------------------------------------------------------------------------
			  State Of Mind - Born From Pain
-------------------------------------------------------------------------------

ARTIST   : Born From Pain
SONG     : State Of Mind
ALBUM    : Survival
TABBED BY: h8urlife
TUNING   : Standard  C# G# C# F# A# D# 



Intro:
            
D#|----------------------------------------------------|
A#|----------------------------------------------------|
F#|----------------------------------------------------|
C#|----------------------------------------------------| 
G#|-5--4--4--5--4--4--5--4~---5--4--4--5--4--4--5--4---|
C#|-3--2--2--3--2--2--3--2~---3--2--2--3--2--2--3--2---|
    



Verse:
           
D#|-----------------------------------------------------------|
A#|-----------------------------------------------------------|
F#|-----------------------------------------------------------|
C#|-----------------------------------------------------------| 
G#|----------4/5-4/5----------5-4-7-5----------5---5---5---5--|
C#|-22222222-2/3-2/3-22222222-3-2-5-3-22222222-3-0-3-0-3-0-3--|
    ........         ........ . . . . ........   .   .   . 



Chorus:

D#|------------------------------------------------|
A#|------------------------------------------------|
F#|------------------------------------------------|
C#|------------------------------------------------| 
G#|-4~---5~---4~---7--5--4~---5~---4~---5---5---5--|
C#|-2~---3~---2~---5--3--2~---3~---2~---3-0-3-0-3--|
                                          .   .   
 


Verse:
            
D#|-----------------------------------------------------------|
A#|-----------------------------------------------------------|
F#|-----------------------------------------------------------|
C#|-----------------------------------------------------------| 
G#|----------4/5-4/5----------5-4-7-5----------5---5---5---5--|
C#|-22222222-2/3-2/3-22222222-3-2-5-3-22222222-3-0-3-0-3-0-3--|
    ........         ........ . . . . ........   .   .   . 




Chorus:
                      (2x)                               (1x)
D#|------------------------------------------------|----------------|
A#|------------------------------------------------|----------------|
F#|------------------------------------------------|---7---7---7----|
C#|------------------------------------------------|---5---5---5----|
G#|-4~---5~---4~---7--5--4~---5~---4~---5---5---5--|--------------2-|
C#|-2~---3~---2~---5--3--2~---3~---2~---3-0-3-0-3--|-0---0---0----0-|
                                          .   .      .   .   . 




Breakdown:

D#|----------------------------------------------------------|
A#|----------------------------------------------------------|
F#|----------------------------------------------------------|
C#|----------------------------------------------------------| 
G#|-2-----2---------5-----2---------3-----2---------5--3--6--|
C#|-0-0-0-0-0-0-0-0-3-0-0-0-0-0-0-0-1-0-0-0-0-0-0-0-3--1--4--|
      . .   . . . .   . .   . . . .   . .   . . . .                                         


D#|----------------------------------------------------------|
A#|----------------------------------------------------------|
F#|----------------------------------------------------------|
C#|----------------------------------------------------------| 
G#|-4-----4---------7-----4---------5-----4---------7--5--8--|
C#|-2-2-2-2-2-2-2-2-5-2-2-2-2-2-2-2-3-2-2-2-2-2-2-2-5--3--6--|
      . .   . . . .   . .   . . . .   . .   . . . .  



Intro:
            
D#|----------------------------------------------------|
A#|----------------------------------------------------|
F#|----------------------------------------------------|
C#|----------------------------------------------------| 
G#|-5--4--4--5--4--4--5--4~---5--4--4--5--4--4--5--4---|
C#|-3--2--2--3--2--2--3--2~---3--2--2--3--2--2--3--2---|



Verse:
            
D#|-------------------------------------------------------|---------------|
A#|-------------------------------------------------------|---------------|
F#|-------------------------------------------------------|---7---7---7---|
C#|-------------------------------------------------------|---5---5---5---|
G#|----------4/5-4/5----------5-4-7-5----------5---5---5--|-------------2-|
C#|-22222222-2/3-2/3-22222222-3-2-5-3-22222222-3-0-3-0-3--|-0---0---0---0-|
    ........         ........ . . . . ........   .   .      .   .   .   




BFP rulez!!!

www.bornfrompain.com
Tap to rate this tab
# A B C D E F G H I J K L M N O P Q R S T U V W X Y Z