Song name
# A B C D E F G H I J K L M N O P Q R S T U V W X Y Z

Botch - I Wanna Be A Sex Symbol On My Own Terms tab

Song: I Wanna Be A Sex Symbol On My Own Terms
Band: Botch
Album: We Are The Romans

Tuning: Dropped D

\ = slide down
/ = slide up
h = hammer on
p = pull off
v = vibrato
b = bend

The vast majority of this song has a lot of repetition, so I will simply
allocate the parts with the times, referring to them as *A*, *B*, etc.
The timings are all pretty simple to figure out, so I hope you don't mind.

(0:00 - 0:41)
These chords on repeat, for quite some time.

 *A* |---------|
     |---------|
     |---------|
     |--2---1--|
     |---------|
     |--2---2--|

(0:42 - 0:44)
I'm fairly sure there are two chords being utilized here, same rhythm.
       
 *B* |----------------|--14--14--14--14--14--14---|
     |----------------|--18b-18b-18b-18b-18b-18b--|
     |----------------|---------------------------|
     |--1-1--1-1-1-1--|---------------------------|
     |----------------|---------------------------|
     |--1-1--1-1-1-1--|---------------------------|

(0:45 - 0:59) *A*

(1:00 - 1:02) *B*

(1:03 - 1:17) *A*

(1:18 - 1:20) *B*

(1:21 - 1:34) *A*

(1:35 - 1:43) *B*, several cycles.

(1:44 - 2:00) *C*
Watch for the time change from 4/4 to 5/4.

|--------------------|
|--------------------|
|--------------------|
|--2-2---------------|
|-------0-0-0-0-0-0--|
|--2-2--0-0-0-0-0-0--|

End this riff by muting the strings and strumming with the snare.

(2:01 - 2:15) *D*

|----------------------|
|----------------------|
|----------------------|
|--2-2--0-2/5p0h8-8p0--|
|----------------------|
|--2-2-----------------|

(2:16 - 2:32)
Listen for the timing.
|--------------|
|-----8b---8b--|
|--7----7------|
|--------------|
|--------------|
|--------------|

(2:33 - 2:43)

|---------------------------|
|---------------------------|
|---------------------------|
|----------6-5----------6v--|
|--0-2--0-------0-2--0------|
|--0-2--0--6-5--0-2--0--6v--|

(2:44 - 2:53)

|--------------|
|--------------|
|--------------|
|----------6\--|
|--0-2--0------|
|--0-2--0--6\--|

end on, palm mute:

|---------|
|---------|
|---------|
|---------|
|--11-10--|
|--12-11--|

(2:54 - 3:10) *C*

(3:11 - 3:25) *D*

(3:26 - end) Same rhythm as *B*

|----------------|
|----------------|
|--3-3--3-3-3-3--|
|--2-2--2-2-2-2--|
|----------------|
|--2-2--2-2-2-2--|
Tap to rate this tab
# A B C D E F G H I J K L M N O P Q R S T U V W X Y Z