Guitaretab - guitar tabs
Song name
# A B C D E F G H I J K L M N O P Q R S T U V W X Y Z

Bow Wow Wow - I Want Candy tab

"I Want Candy" by Bow Wow Wow


CHORDS:      A      A  A  A  A         G  A     (you can also move up to C# and B)
STROKE:       V       ^  V  ^  V         V  V     (listen to the song, you'll get it)
e|----------5---------------3---5-----------------------------------------------|
B|----------5---------------3---5-----------------------------------------------|
G|----------6---------------4---6-----------------------------------------------|
D|----------7---------------5---7-----------------------------------------------|
A|----------7---------------5---7-----------------------------------------------|
E|----------5---------------3---5-----------------------------------------------|
                                   This is the main riff ^

                  "I.............Want Can-dy"        (then play riff above again)
e|----------5-----------3---5-----------------------------------------------|
B|----------5-----------3---5-----------------------------------------------|
G|----------6-----------4---6-----------------------------------------------|
D|----------7-----------5---7-----------------------------------------------|
A|----------7-----------5---7-----------------------------------------------|
E|----------5-----------3---5-----------------------------------------------|

[ Tab from: http://www.guitaretab.com/b/bow-wow-wow/123124.html ]
         another guitar plays this lick before "I Want Candy"
e|------------------------------------------------------------------------------|
B|---7----7-7---10---7-----------7----------------------------------------------|
G|------------------------9---7-------------------------------------------------|
D|------------------------------------------------------------------------------|
A|------------------------------------------------------------------------------|
E|------------------------------------------------------------------------------|

        after that play this lick before "I Want Candy"
e|----------------------------------------------------------------------------------|
B|---7----7-7---5--------------------5----------------------------------------------|
G|-----------------7---------7---7-------7------------------------------------------|
D|----------------------------------------------------------------------------------|
A|----------------------------------------------------------------------------------|
E|----------------------------------------------------------------------------------|

ORDER:  1) main riff
             2) licks (little riff)
             3) "I Want Candy"
             4) end with main riff

         That's it!! Enjoy                       M.Martin06