Song name
# A B C D E F G H I J K L M N O P Q R S T U V W X Y Z

Bowling For Soup - Undertow tab

-----------------------------------------------------------------
Undertow - Bowling For Soup
-----------------------------------------------------------------
Tabbed by: Bair
Email: bair_morritt@hotmail.com

Tuning: Standard


Intro:
e|----------------------------------------------|
B|----------------------------------------------|
G|--22222222--77-77--22222222--77-77--22222222--|
D|--22222222--77-77--22222222--77-77--22222222--|
A|--00000000--55-44--00000000--44-55--00000000--|
E|----------------------------------------------|

Verse:
e|-------------------------------------------------|
B|-------------------------------------------------|
G|--2222222222222222--7777--2222--77-77--22222222--|
D|--2222222222222222--7777--2222--77-77--22222222--|
A|--0000000000000000--5555--0000--55-44--00000000--|
E|-------------------------------------------------|
"Another roller coaster ride, we we're stuck...."

e|------------------------------------------|
B|------------------------------------------|
G|--2222222222222222--7777--2222--77-77-----|
D|--2222222222222222--7777--2222--77-77-----|
A|--0000000000000000--5555--0000--44-55-----|
E|------------------------------------------|
"You were broken-hearted; I was all right...."

Pre-Chorus:
e|------------------------------------------|
B|------------------------------------------|
G|--9999999999999999--7777777-7-------------|
D|--9999999999999999--7777777-7-------------|
A|--7777777777777777--5555555-5-------------|
E|------------------------------------------|
"She tried to ditch me and I tried to hate her...."

Chorus:
e|------------------------------------------|
B|------------------------------------------|
G|--22222222--77777777--99999999--2222--77--|
D|--22222222--77777777--99999999--2222--77--|
A|--00000000--55555555--77777777--0000--55--|
E|------------------------------------------|
"I’ve got this figured out, but I still don’t understand her"

e|------------------------------------------|
B|------------------------------------------|
G|--22222222--77777777--99999999--22--------|
D|--22222222--77777777--99999999--22-66-----|
A|--00000000--55555555--77777777--00-66-----|
E|-----------------------------------44-----|
"She’s like the perfect wave in a shark infested sea."

e|------------------------------------------|
B|------------------------------------------|
G|------------77777777--99999999------------|
D|--44444444--77777777--99999999--44-44-----|
A|--44444444--55555555--77777777--44-44-----|
E|--22222222----------------------22-11-----|
"When she breaks, she rains down on me...."

e|------------------------------------------|
B|------------------------------------------|
G|--77777777--99999999--2222222222222222----|
D|--77777777--99999999--2222222222222222----|
A|--55555555--77777777--0000000000000000----|
E|------------------------------------------|
"Yes, I feel at home in the undertow."

-Then Verse
-Then Pre-Chorus
-Then Chorus

Bridge:
e|-----------------------------------------------|
B|-----------------------------------------------|
G|--44444444--66666666--77777777--99999999-------|
D|--44444444--66666666--77777777--99999999-(X2)--|
A|--22222222--44444444--55555555--77777777-------|
E|-----------------------------------------------|
"Seems like I never win, I never learned how to swim...."

e|--------------------------------------------|
B|--------------------------------------------|
G|--77777777--66666666--4444444444444444--66--|
D|--77777777--66666666--4444444444444444--66--|
A|--55555555--44444444--2222222222222222--44--|
E|--------------------------------------------|
"Ba-ba-da-ba, Ba-ba-da-ba, Ba-ba-da-ba...."

e|------------------------------------------|
B|------------------------------------------|
G|--77777777--66666666--9999999999999999----|
D|--77777777--66666666--9999999999999999----|
A|--55555555--44444444--7777777777777777----|
E|------------------------------------------|
"Ba-ba-da-ba x 6(hold the last “ba”)"

-Then Chorus

Outro:
e|------------------------------------------|
B|------------------------------------------|
G|--77777777--99999999-------2--------------|
D|--77777777--99999999-(X3)--2-(LET-RING)---|
A|--55555555--77777777-------0--------------|
E|------------------------------------------|
"Yes, I feel at home in the undertow...."

________________________________________________________________________
Lyrics:

Another roller coaster ride,
We were stuck, in overdrive,
You were broken-hearted; I was all right,
When I met you….

She tried to ditch me and I tried to hate her,
But we’re still here ten break-ups later.
I’ve got this figured out, but I still don’t understand her,
She’s like the perfect wave in a shark infested sea.

When she breaks, she rains down on me,
And I can’t catch my breath,
But I won’t let ‘er go…
Yes, I feel at home in the undertow.

My friends told me “Man you’re gonna crash,
A car like that’ll knock you on your ass
I told ‘em all that they could eat our dust,
And we’re still truckin’ on…

Chorus

Seems like I never win, I never learned how to swim,
I spend my whole life treadin’ water…
You got me off of the beach and now I’m back in the reef,
You can be my life preserver…
Ba-ba-da-ba x 6(hold the last “ba”)

I’ve got this figured out, but I still don’t understand her,
She’s like the perfect wave in a shark infested sea.

When she breaks, she rains down on me,
And I can’t catch my breath,
But I won’t let ‘er go…
Yes, I feel at home in the undertow.

I’ve got this figured out, but I still don’t understand her,
She’s like the perfect wave in a shark infested sea.

When she breaks, she rains down on me,
And I can’t catch my breath,
But I won’t let ‘er go…
Yes, I feel at home in the undertow
Tap to rate this tab
# A B C D E F G H I J K L M N O P Q R S T U V W X Y Z