Song name
# A B C D E F G H I J K L M N O P Q R S T U V W X Y Z

Bowling For Soup - Milo tab

Cant find a tab of this song around...Really easy. good song. From the album Rock on 
ones. Enjoy.
Questions or problems contact me at Stormbreaker29@hotmail.com

Artist: Bowling For Soup
Name: Milo
Album: Rock on Honourable Ones

Hey this is my first tab so it may be a little wrong. Sorry if so.
But this is an awesome song and i couldnt find any tabs anywhere so i thought id try it myself

. PM
/ Slide Up
^ Vibrate
b^ Vibrate bended note

Intro (distorted)

e|---------------------------------------------------------|
B|---------------------------------------------------------|
G|-7-77------------5-55---4--5-----------------------------|  x2
D|-7-77----5-55----5-55---4--5-----------------------------|
A|-5-55----5-55----3-33---2--3-----------------------------|
E|---------3-33--------------------------------------------|
     ..      ..      ..

Intro 2

e|---------------------------------------------------------|
B|---------------------------------------------------------|
G|-7-77------------5-55---4--5-----------------------------|  x2
D|-7-77----5-55----5-55---4--5-----------------------------|
A|-5-55----5-55----3-33---2--3-----------------------------|
E|---------3-33--------------------------------------------|

Intro 3

e|---------------------------------------------------------|
B|---------------------------------------------------------|
G|-444-----------------444----------------444--------------|
D|-444---5-4-5--Drums--444---5-4-5-Bass---444---5-4-5--6b^-|
A|-222---5-4-5---------222---5-4-5--------222---5-4-5------|
E|-------3-2-3---------------3-2-3--------------3-2-3------|

Verse

e|---------------------------------------------------------|
B|---------------------------------------------------------|
G|-7777777777----------------------------------------------|  x4
D|-7777777777---7777---5555/7------------------------------|
A|-5555555555---7777---5555/7------------------------------|
E|--------------5555---3333/5------------------------------|

Pre Chorus
0:45(...And She would sing to me...)
e|------------------------------------------------------------|
B|------------------------------------------------------------|
G|-444--------------------------------------------------------|
D|-444---5-4-5---------x2----7--5-----------------------------|
A|-222---5-4-5---------------7--5-----------------------------|
E|-------3-2-3---------------5--3-----------------------------|


Chorus

e|---------------------------------------------------------|
B|---------------------------------------------------------|
G|-777777--555555--444444--555555--------------------------| x4
D|-777777--555555--444444--555555--------------------------|
A|-555555--333333--222222--333333--------------------------|
E|---------------------------------------------------------|

Intro 2

e|---------------------------------------------------------|
B|---------------------------------------------------------|
G|-7-77------------5-55---4--5-----------------------------|  x2
D|-7-77----5-55----5-55---4--5-----------------------------|
A|-5-55----5-55----3-33---2--3-----------------------------|
E|---------3-33--------------------------------------------|

Verse

e|---------------------------------------------------------|
B|---------------------------------------------------------|
G|-7777777777----------------------------------------------|  x4
D|-7777777777---7777---5555/7------------------------------|
A|-5555555555---7777---5555/7------------------------------|
E|--------------5555---3333/5------------------------------|


Pre Chorus
0:45(...And She would sing to me...)
e|----------------------------------------------------------|
B|----------------------------------------------------------|
G|-444------------------------------------------------------|
D|-444---5-4-5---------x2----7--5---------------------------|
A|-222---5-4-5---------------7--5---------------------------|
E|-------3-2-3---------------5--3---------------------------|

Chorus

e|---------------------------------------------------------|
B|---------------------------------------------------------|
G|-777777--555555--444444--555555--------------------------| x4
D|-777777--555555--444444--555555--------------------------|
A|-555555--333333--222222--333333--------------------------|
E|---------------------------------------------------------|

Part before solo

e|---------------------------------------------------------|
B|---------------------------------------------------------|
G|-7--5--4--5----------------------------------------------| x2
D|-7--5--4--5----------------------------------------------|
A|-5--3--2--3----------------------------------------------|
E|---------------------------------------------------------|

Solo

e|---------------------------------------------------------|
B|---------------------------------------------------------|
G|---7--5----0--55--4------4--2-----5--7p5-7p5---5^--------| x2
D|---------7----------5-0-------4-0------------------------|
A|---------------------------------------------------------|
E|---------------------------------------------------------|

e|---------------------------------------------------------|
B|-------10----8-----7----8--------------------------------|
G|----11-----9-----7----9----------------------------------| x2
D|---------------------------------------------------------|
A|---------------------------------------------------------|
E|---------------------------------------------------------|

Backing through solo is just the chorus

Chorus

e|---------------------------------------------------------|
B|---------------------------------------------------------|
G|-------777777--555555--444444-------555555---------------|x2
D|Pause--777777--555555--444444-Pause-555555---------------|
A|-------555555--333333--222222-------333333---------------|
E|---------------------------------------------------------|


e|---------------------------------------------------------|
B|---------------------------------------------------------|
G|-777777--555555--444444--555555--------------------------| x4
D|-777777--555555--444444--555555--------------------------|
A|-555555--333333--222222--333333--------------------------|
E|---------------------------------------------------------|

Outro

e|---------------------------------------------------------|
B|---------------------------------------------------------|
G|-777-------555--6666---7~--------------------------------|
D|-777--555--555--6666---7~--------------------------------|
A|-555--333--333--4444---5~--------------------------------|
E|------333------------------------------------------------|
    ..   ..   ..  ..


Song Order:

Intro 1
Intro 2
Intro 3
Verse
Pre Chorus
Chorus
Intro 2
Verse
Pre Chorus
Chorus
Part before Solo
Solo
Chorus
Outro
End.
Tap to rate this tab
# A B C D E F G H I J K L M N O P Q R S T U V W X Y Z