Song name
# A B C D E F G H I J K L M N O P Q R S T U V W X Y Z

Bowling For Soup - London Bridge tab

Help us improve GuitareTab! Take a short survey!
ok this is my first tab it is a cover of london Bridge, everything is  correct and i
played along with the youtube video to ensure accuracy, i found that the other tab on offer
have a proper verse and a correct bridge. Play each of the sections for however long the 
goes for, however the bridge is only played once at about 2.35.

Verse-Guitar 1:

e|----------------------------|
b|----------------------------|
g|-----------X 7--------------|
d|----2------------2----------|
a|----2------------2----------|
e|----0-----------------------|

*remember that allen wrench or something similar is required in the verse
in the verse you hit the 3 strings 7 times, then u slide like 5cms with the allen wrench
the last chord with ur right hand.  Also bare in mind that other slight variations are
so just play along with the youtube video*

Chours-Guitar 1:

e]----------------------------------------|------|
b]----------------------------------------|------|
g]------------ X 8--------------------x 8-|------|
d]-----2---------------------3------------|-X 3--|
a]-----2---------------------3------------|------|
e]-----0---------------------1------------|------|


Chours-Guitar 2:

e|-------------------------------------|------|
b|-------------------------------------|------|
g|----9-----X 8------------10-----X 8--|------|
d|----9--------------------10----------|-X 3--|
a|----7--------------------8-----------|------|
e|-------------------------------------|------|

Bridge-Guitar 1:

e|--------------------------------------------------------------------|---|
b|--------------------------------------------------------------------|-0-|
g|----10------X 8--8----x 8------6-----X 8---------10-----X 8---------|---|
d|----10-----------8-------------6-----------slide-10-----------------|---|
a|----8------------6-------------4------------------8-----------------|-0-|
e|--------------------------------------------------------------------|---|


ok thats all have fun
cya, any further questions plz email me at: nightfox_222@hotmail.com
Related for London Bridge tab