Bowling For Soup - Turbulence tab

-----------------------------------------------------------------------------
                                TURBULENCE              BOWLING FOR SOUP
-----------------------------------------------------------------------------

Tabbed by:hurricaneherman

Tuning:
Acoustic guitar 1:Standard
Acoustic guitar 2:Standard
Electric guitar:Standard

Here is the tab for Bowling For Soup's song "Turbulence", from their album
Fishin' For Woos.
NOTE: The lyrics do not line up, so don't use them as exact guidelines.

~INTRO~

 |acoustic 1|
e|------------0h2-------------3---------------3-------0-----0-----|
B|----------------3-------------3---------------3-----3-----2-----|
G|--------2h4-------0-------0---------------2-----2---2-----2-----|
D|----0-------------------0---------0-----2---------2-2-----2-----|
A|0h2-------------------------------------------------0-----0-----|
E|--------------------3-----------2---0---------------------------|

~VERSE 1~
  Bm              G               Em7             A
 |acoustic 1|
e|2---2---2---2-2-3---3---3---3-3-0---0---0---0-0-0---0---0---0-0-|
B|3---3---3---3-3-0---0---0---0-0-3---3---3---3-3-2---2---2---2-2-|
G|4---4---4---4-4-0---0---0---0-0-0---0---0---0-0-2---2---2---2-2-|
D|4---4---4---4-4-0---0---0---0-0-2---2---2---2-2-2---2---2---2-2-|X[2]
A|2---2---2---2-2-2---2---2---2-2-2---2---2---2-2-0---0---0---0-0-|
E|----------------3---3---3---3-3-0---0---0---0-0-----------------|
           It's so hard to figure out which way to turn
         There's no going back now all your bridges burned
  Bm              A               D           G
 |acoustic 1|
e|2---2---2---2-2-0---0---0---0-0-2-----------3-------3-----------|
B|3---3---3---3-3-2---2---2---2-2-3-----------0-------0-----------|
G|4---4---4---4-4-2---2---2---2-2-2---0--/2---0-------0-----------|
D|4---4---4---4-4-2---2---2---2-2-0-----------0-------0---0-0---0-|
A|2---2---2---2-2-0---0---0---0-0-------------2-------2---0-0---0-|
E|--------------------------------------------3-------3---3-2---2-|
 The stars are going to shine on you if you can get through the day
  Em                              Asus4           A           D G
 |acoustic 1|
e|0---0---0-----0---0-0---0---0-0-0---0---0---0-0-0-----------2-3-|
B|0---0---0-----0---0-0---0---0-0-3---3---3---3-3-2-----------3-0-|
G|0---0---0-----0---0-0---0---0-0-2---2---2---2-2-2-----------2-0-|
D|2---2---2-----2---2-2---2---2-2-2---2---2---2-2-2-----------0-0-|
A|2---2---2-----2---2-2---2---2-2-0---0---0---0-0-0-------------2-|
E|0---0---0-----0---0-0---0---0-0-------------------------------3-|
     Storm clouds all around you but a blue skies on the way

~CHORUS 1~

  G               D               A                         D
 |acoustic 1|
e|3---3---3---3-3-2-2-2---2---2-2-0---0---0---0-0---0-0---0-2---2-|
B|0---0---0---0-0-3-3-3---3---3-3-2---2---2---2-2---2-2---2-3---3-|
G|0---0---0---0-0-2-2-2---2---2-2-2---2---2---2-2---2-2---2-2---2-|
D|0---0---0---0-0-0-0-0---0---0-0-2---2---2---2-2---2-2---2-0---0-|
A|2---2---2---2-2-----------------0---0---0---0-0---0-0---0-------|
E|3---3---3---3-3-------------------------------------------------|
             And we're all just passengers tonight
  G               D               A               Bm        D
 |acoustic 1|
e|3---3---3---3-3-2-2-2---2---2-2-0---0---0---0-0-2---2-2-2-2---2-|
B|0---0---0---0-0-3-3-3---3---3-3-2---2---2---2-2-3---3-3-3-3---3-|
G|0---0---0---0-0-2-2-2---2---2-2-2---2---2---2-2-4---4-4-4-2---2-|
D|0---0---0---0-0-0-0-0---0---0-0-2---2---2---2-2-4---4-4-4-0---0-|
A|2---2---2---2-2-----------------0---0---0---0-0-2---2-2-2-------|
E|3---3---3---3-3-------------------------------------------------|
           And we're all just traveling through our lives
  G                 D             A               Bm
 |acoustic 1|
e|3---3---3---3-3-2-2-2---2---2-2-0---0---0---0-0-2---2---2---2-2-|
B|0---0---0---0-0-3-3-3---3---3-3-2---2---2---2-2-3---3---3---3-3-|
G|0---0---0---0-0-2-2-2---2---2-2-2---2---2---2-2-4---4---4---4-4-|
D|0---0---0---0-0-0-0-0---0---0-0-2---2---2---2-2-4---4---4---4-4-|
A|2---2---2---2-2-----------------0---0---0---0-0-2---2---2---2-2-|
E|3---3---3---3-3-------------------------------------------------|
     We will reach our destination so just hang on for the ride
  C                               G
 |acoustic 1|
e|0---0---0---0-0-0-0-0---0---0-0-3-------------------------------|
B|1---1---1---1-1-1-1-1---1---1-1-0-------------------------------|
G|0---0---0---0-0-0-0-0---0---0-0-0-------------------------------|
D|2---2---2---2-2-2-2-2---2---2-2-0-------------------------------|
A|3---3---3---3-3-3-3-3---3---3-3-2-------------------------------|
E|--------------------------------3-------------------------------|
   Say a prayer and close your eyes it's just a little turbulence

~INTERLUDE~

 |acoustic 1|
e|------------0h2-------------3---------------3-------0-----0-----|
B|----------------3-------------3---------------3-----3-----2-----|
G|--------2h4-------0-------0---------------2-----2---2-----2-----|
D|----0-------------------0---------0-----2---------2-2-----2-----|
A|0h2-------------------------------------------------0-----0-----|
E|--------------------3-----------2---0---------------------------|
 |acoustic 2|                                                     |
e|------------2-------2p0-----3---------------3-------------------|
B|----3-----------------------------3/5---------------------------|
G|----------------------------------------------------------------|
D|----------------------------------------------------------------|
A|----------------------------------------------------------------|
E|----------------------------------------------------------------|

~VERSE 2~

acoustic 1 repeats verse 1 with a few extra strums on the A chord.

Take a look around you look how far you've come
Your whole life in front of you you've only just begun
We've all got our problems but they're just bumps in the road

 |electric|
e|------------------------------------------------------------2-3-|
B|------------------------------------------------------------3-0-|
G|------------------------------------------------------------2-0-|
D|------------------------------------------------------------0-0-|
A|7---------------------------9---\0----------------------------2-|
E|--------------------------------------------------------------3-|
    If you only keep on fighting there's no where you can't go

~CHORUS 2~

Acoustic 1 repeats chorus 1.
  G               D               A                       D
 |electric|
e|3---------------2---------------0-------------------0---2-------|
B|0---------------3---------------2-------------------2---3-------|
G|0---------------2---------------2-------------------2---2-------|
D|0---------------0---------------2-------------------2---0-------|
A|2-------------------------------0-------------------0-----------|
E|3---------------------------------------------------------------|
               And we're all just passengers tonight
  G               D               A               Bm      D
 |electric|
e|3---------------2---------------0---------------2-------2-------|
B|0---------------3---------------2---------------3-------3-------|
G|0---------------2---------------2---------------4-------2-------|
D|0---------------0---------------2---------------4-------0-------|
A|2-------------------------------0---------------2---------------|
E|3---------------------------------------------------------------|
         And we're all just traveling through our lives
  G               D               A               Bm
 |electric|
e|3---------------2---------------0---------------2---------------|
B|0---------------3---------------2---------------3---------------|
G|0---------------2---------------2---------------4---------------|
D|0---------------0---------------2---------------4---------------|
A|2-------------------------------0---------------2---------------|
E|3---------------------------------------------------------------|
     We will reach our destination so just hang on for the ride
  C                               G5
 |electric|                       P.M--------------|
e|0---------------0-----------------------------------------------|
B|1---------------1-----------------------------------------------|
G|0---------------0-----------------------------------------------|
D|2---------------2---------------5-5-5-5-5-5-5-5-5-5-5-5-5-5-5-5-|
A|3---------------3---------------5-5-5-5-5-5-5-5-5-5-5-5-5-5-5-5-|
E|--------------------------------3-3-3-3-3-3-3-3-3-3-3-3-3-3-3-3-|
   Say a prayer and close your eyes it's just a little turbulence

~BRIDGE~

  Em              A               D               G
 |acoustic 1|
e|0---0---0---0-0-0---0---0---0-0-2---2---2---2-2-3---3---3-3-3-3-|
B|0---0---0---0-0-2---2---2---2-2-3---3---3---3-3-0---0---0-0-0-0-|
G|0---0---0---0-0-2---2---2---2-2-2---2---2---2-2-0---0---0-0-0-0-|
D|2---2---2---2-2-2---2---2---2-2-0---0---0---0-0-0---0---0-0-0-0-|
A|2---2---2---2-2-0---0---0---0-0-----------------2---2---2-2-2-2-|
E|0---0---0---0-0---------------------------------3---3---3-3-3-3-|
 |electric|                                                       |
e|0-------0-------0-------0-------2-------2-------3-------3-----3-|
B|0-------0-------2-------2-------3-------3-------0-------0-----0-|
G|0-------0-------2-------2-------2-------2-------0-------0-----0-|
D|2-------2-------2-------2-------0-------0-------0-------0-----0-|
A|2-------2-------0-------0-----------------------2-------2-----2-|
E|0-------0---------------------------------------3-------3-----3-|
        This life can be so crazy can spin out of control
  Em              A               D
 |acoustic 1|
e|0---0---0---0-0-0---0---0---0-0-2---2---2---2-2-2---2---2-2-2-2-|
B|0---0---0---0-0-2---2---2---2-2-3---3---3---3-3-3---3---3-3-3-3-|
G|0---0---0---0-0-2---2---2---2-2-2---2---2---2-2-2---2---2-2-2-2-|
D|2---2---2---2-2-2---2---2---2-2-0---0---0---0-0-0---0---0-0-0-0-|
A|2---2---2---2-2-0---0---0---0-0---------------------------------|
E|0---0---0---0-0-------------------------------------------------|
 |electric|                                                       |
e|0-------0-------0-------0-------2-------2-------2-------2-----2-|
B|0-------0-------2-------2-------3-------3-------3-------3-----3-|
G|0-------0-------2-------2-------2-------2-------2-------2-----2-|
D|2-------2-------2-------2-------0-------0-------0-------0-----0-|
A|2-------2-------0-------0---------------------------------------|
E|0-------0-------------------------------------------------------|
             But I hope that all your dreams come true
  Em7             A               Bm      A       G
 |acoustic 1|
e|0---0---0---0-0-0---0---0---0-0-2-----2-0-----0-3---3---3---3-3-|
B|3---3---3---3-3-2---2---2---2-2-3-----3-2-----2-0---0---0---0-0-|
G|0---0---0---0-0-2---2---2---2-2-4-----4-2-----2-0---0---0---0-0-|
D|2---2---2---2-2-2---2---2---2-2-4-----4-2-----2-0---0---0---0-0-|
A|2---2---2---2-2-0---0---0---0-0-2-----2-0-----0-2---2---2---2-2-|
E|0---0---0---0-0---------------------------------3---3---3---3-3-|
 |electric|                                                       |
e|0-------0-------0-------0-------2-------0-------3-------3-----3-|
B|3-------3-------2-------2-------3-------2-------0-------0-----0-|
G|0-------0-------2-------2-------4-------2-------0-------0-----0-|
D|2-------2-------2-------2-------4-------2-------0-------0-----0-|
A|2-------2-------0-------0-------2-------0-------2-------2-----2-|
E|0-------0---------------------------------------3-------3-----3-|
   'Cause you know that you're amazing and no matter where you go
  Em7                             Asus4           A
 |acoustic 1|
e|0---0---0---0-0-0---0---0---0-0-0---0---0---0-0-0---0---0---0-0-|0---|
B|3---3---3---3-3-3---3---3---3-3-3---3---3---3-3-2---2---2---2-2-|2---|
G|0---0---0---0-0-0---0---0---0-0-2---2---2---2-2-2---2---2---2-2-|2---|
D|2---2---2---2-2-2---2---2---2-2-2---2---2---2-2-2---2---2---2-2-|2---|
A|2---2---2---2-2-2---2---2---2-2-0---0---0---0-0-0---0---0---0-0-|0---|
E|0---0---0---0-0-0---0---0---0-0---------------------------------|----|
 |electric|                                                       |    |
e|0-------0-------0-------0-------0-------0-------0-------0-------|0---|
B|3-------3-------3-------3-------3-------3-------2-------2-------|2---|
G|0-------0-------0-------0-------2-------2-------2-------2-------|2---|
D|2-------2-------2-------2-------2-------2-------2-------2-------|2---|
A|2-------2-------2-------2-------0-------0-------0-------0-------|0---|
E|0-------0-------0-------0---------------------------------------|----|
            I'll be there for you we can make it through

~CHORUS 3~

 |acoustic 1|
e|--------3---------------2p0-------------------------------------|
B|----------------------------------------2-------3p2-----2-------|
G|----------------------------------------------------------------|
D|----------------0-----------------------------------------------|
A|--------------------------------0-------------------------------|
E|3---------------------------------------------------------------|
               And we're all just passengers tonight
 |acoustic 1|                                         Bm    A
e|--------3---------------2p0-------------------------2-2---0-0---|
B|----------------------------------------2-------3---3-3---2-2---|
G|----------------------------------------------------4-4---2-2---|
D|----------------0-----------------------------------4-4---2-2---|
A|--------------------------------0-------------------2-2---0-0---|
E|3---------------------------------------------------------------|
           And we're all just traveling through our lives

Repeat second half of chorus 2, but change the G5 to a G played in the same
pattern as the rest. Same lyrics.

~CHORUS 4~

Repeat chorus 2, changing the G5's again. Same lyrics.
=============================================================================
/ = slide up
\ = slide down
h = hammer on
p = pull off
P.M = palm mute

I hope you enjoy this tab, and that it was easy to follow.
Please rate.
                     Peace, Love, I'm out.	
Tap to rate this tab
 
# A B C D E F G H I J K L M N O P Q R S T U V W X Y Z