Song name
# A B C D E F G H I J K L M N O P Q R S T U V W X Y Z

Box Car Racer - Sorrow tab

this song is very easy, the intro is very easy that is what i got for the intro although 
differs from many a tabs.

intro

E------------------------------------------------------------|
B------------------------------------------------------------|
G------------------------------------------------------------|
D------------------------------------------------------------|
A-5-4-0-7-5-4------------------------------------------------|
E------------------------------------------------------------|  x8

verse

E----------------------------------------------------------------|
B----------------------------------------------------------------|
G----------------------------------------------------------------|
D--7-7-7-7-7-7-7-7--6-6-6-6-6-6-6-6--4-4-4-4-4-4-4-4-------------|
A--x-x-x-x-x-x-x-x--x-x-x-x-x-x-x-x--x-x-x-x-x-x-x-x-------------|
E--5-5-5-5-5-5-5-5--4-4-4-4-4-4-4-4--2-2-2-2-2-2-2-2-------------|


E------------------------|
B------------------------|
G------------------------|
D--6-6-6-6-6-6-6-6-------|
A--x-x-x-x-x-x-x-x-------|
E--4-4-4-4-4-4-4-4-------|


chorus

E----------------------------------------------------------------|
B----------------------------------------------------------------|
G----------------------------------------------------------------|
D--7-7-7-7-7-7-7-7--6-6-6-6-6-6-6-6--4-4-4-4-4-4-4-4-------------|
A--7-7-7-7-7-7-7-7--6-6-6-6-6-6-6-6--4-4-4-4-4-4-4-4-------------|
E--5-5-5-5-5-5-5-5--4-4-4-4-4-4-4-4--2-2-2-2-2-2-2-2-------------|


E------------------------|
B------------------------|
G------------------------|
D--6-6-6-6-6-6-6-6-------|
A--6-6-6-6-6-6-6-6-------|
E--4-4-4-4-4-4-4-4-------|


interlude

E----------------------------|
B----------------------------|
G--5-4-0-4-5-4-0-------------|
D----------------------------|
A----------------------------|
E----------------------------|
Tap to rate this tab
# A B C D E F G H I J K L M N O P Q R S T U V W X Y Z