Song name
# A B C D E F G H I J K L M N O P Q R S T U V W X Y Z

Box Car Racer - Dance With Me tab

Dance With Me
Boxcar Racer
Live song (New album maybe?)
Tabbed by Chris

I downloaded this song from Kazaa, really good a simple to play.  The
main riff I've put down isn't the exact way to play it but you get the 
basic idea.  Enjoy

Main Riff
e|----------------------------------------------------------------|
B|----------------------------------------------------------------|
G|-6------------6-6------------6-6------------6-6-----------------|
D|-6-7-77-77-77-6-6-7-77-77-77-6-6-7-77-77-77-6-6-7-77-77-77-6-7--|
A|-4-7-77-77-77-4-4-7-77-77-77-4-4-7-77-77-77-4-4-7-77-77-77-6-7--|
E|---5-55-55-55-----5-55-55-55-----5-55-55-55-----5-55-55-55-4-5--|

Bridge
e|----------------------------------------------------------------|
B|----------------------------------------------------------------|
G|----------------------------------------------------------------|
D|-4---6---7------------------------------------------------------|
A|-4---6---7------------------------------------------------------|
E|-2---4---5------------------------------------------------------|
Tap to rate this tab
# A B C D E F G H I J K L M N O P Q R S T U V W X Y Z