Song name
# A B C D E F G H I J K L M N O P Q R S T U V W X Y Z

Box Car Racer - Why tab

-------------------------------------------------------------------------------
			Boxcar Racer: Why
-------------------------------------------------------------------------------
Tabbed by:Alex Wright
Email:walking_contradiction_86@hotmail.com

Tuning:standard (eadgbe)


  VERSE

e|-----------------------------------------------------------------------------
B|-----------------------------------------------------------------------------
G|--------------------777777777-----------------------------7-6-4--------------
D|-7777777777444444427777777772-222367-----twice then--5---------7-6-4-6-7-----
A|-7777777777444444425555555552-222467-----------------5-----------------------
E|-55555555546222222220---------0-000245---------------7-----------------------
  
 Repeat Verse

 CHORUS

e|-----------------------------------------------------------------------------
B|-----------------------------------------------------------------------------
G|-------------------777777777-------------------------------------------------
D|-7777777744444444427777777772------------------------------------------------
A|-7777777744444444425555555552------------------------------------------------
E|-555555552222222220---------0------------------------------------------------

 Other bit: fiddle with D, F#, E and A i can't be bothered to tab it

 This is better than the other version. Laters people. Btw this is my first tab
so don't kill me if it sucks!

| /  slide up
| \  slide down
| h  hammer-on
| p  pull-off
| ~  vibrato
| +  harmonic
| x  Mute note
===============================================================================
Tap to rate this tab
# A B C D E F G H I J K L M N O P Q R S T U V W X Y Z