Song name
# A B C D E F G H I J K L M N O P Q R S T U V W X Y Z

Boy And Bear - The Storm tab

-------------------------------------------------------------------------------
			     The Storm - Boy And Bear
-------------------------------------------------------------------------------
Tabbed by: Sam White
Email: sam.oleri@gmail.com

Tuning: Standard (EADGBe)

Intro: Bm, G, Bm, G

Chords:
  Bm    G
e|-2----3----|
B|-3----3----|
G|-4----4----|
D|-4----5----|
A|-2----5----|
E|-2----3----|

Then the little riffs in between verses.

e|-10-7----7--------------10-7-10-7--7-10-7--7-------10-7-10-7--7------------|
B|------10---7~--------------------10------10--7~-------------10-------------|
G|---------------------------------------------------------------------------|
D|---------------------------------------------------------------------------|
A|---------------------------------------------------------------------------|
E|---------------------------------------------------------------------------|

Thats pretty much it, its a pretty simple song. If you want to make the first barre
easier, you could put a capo on the second fret, but you will still have to make barre chord
the G. The strumming is probably the easiest thing of all, and if you listen to the song 
will know what i mean. Email me for any thing i may of missed.

The song can be on iTunes in their EP, 'With Emperor Antarctica'

************************************

| /   slide up
| \   slide down
| h   hammer-on
| p   pull-off
| ~   vibrato
| +   harmonic
| x   Mute note
| b   Bend
| pb  Pre-bend
| br  Bend release
| pbr Pre-bend release
| brb Bend release bend

************************************
Tap to rate this tab
 
# A B C D E F G H I J K L M N O P Q R S T U V W X Y Z