Song name
# A B C D E F G H I J K L M N O P Q R S T U V W X Y Z

Boy And Bear - My Only One tab

My Only One - Boy And Bear
`
Ok, well since my first one got rejected i've re done it if they couldn't read it. 
heres a friendlier version.

INTRO

   Gm  A#  Dm   D#   Dm

E|-3---x----5----x----5--|   
B|-3---3----6----8----6--|
G|-3---3----7----8----7--|
D|-5---3----7----8----7--|
A|-5---1----5----6----5--|
E|-3---x----x----x----x--|



VERSE - Listen for strumming pattern

 | Gm | A# | Dm | D# | Dm | Gm | A# | Dm | D# | Dm | D# | Dm | Cm | C7 |

E|--3----x----5----x----5----3----x----5----x----5----x----5----x---3--|   
B|--3----3----6----8----6----3----3----6----8----6----8----6----4---5--|
G|--3----3----7----8----7----3----3----7----8----7----8----7----5---3--|
D|--5----3----7----8----7----5----3----7----8----7----8----7----5---5--|
A|--5----1----5----6----5----5----1----5----6----5----6----5----3---3--|
E|--3----x----x----x----x----3----x----x----x----x----x----x----x---x--|



1ST SOLO

E|----------------------------------------------------------------------------|
B|----------------------------------------------------------------------------|
G|-------------------------3---2~----------------------3--2-------------------|
D|----------------3-------------------3~-----5---3--5--------5--3--5----------|
A|-----------3--5----5--6---------------------------------------------1-------|
E|--3--5--6--------------------------------------------------------------3~---|



VERSE - Listen for strumming pattern

 | Gm | A# | Dm | D# | Dm | Gm | A# | Dm | D# | Dm | D# | Dm | Cm | C7 |

E|--3----x----5----x----5----3----x----5----x----5----x----5----x---3--|   
B|--3----3----6----8----6----3----3----6----8----6----8----6----4---5--|
G|--3----3----7----8----7----3----3----7----8----7----8----7----5---3--|
D|--5----3----7----8----7----5----3----7----8----7----8----7----5---5--|
A|--5----1----5----6----5----5----1----5----6----5----6----5----3---3--|
E|--3----x----x----x----x----3----x----x----x----x----x----x----x---x--|



CHORUS

    Gm   F   C7       Gm   F   A#(A#sus4)    Gm  F  C7     Gm  F  Cm  C7

E|--3----1----3-------3----1----x--x--x------3---1---3-----3---1---3--3--|   
B|--3----1----5-------3----1----3--4--3------3---1---5-----3---1---4--5--|
G|--3----2----3-------3----2----3--3--3------3---2---3-----3---2---5--3--|
D|--5----3----5-------5----3----3--3--3------5---3---5-----5---3---5--5--|
A|--5----3----3-------5----3----1--1--1------5---3---3-----5---3---3--3--|
E|--3----1----x-------3----1----x--x--x------3---1---x-----3---1---x--x--|



2ND SOLO


E|------------------------------------------------------------------------|
B|------------------------------------------------------------------------|
G|-------------------------3---2~------------------3--2-------------------|
D|----------------3-----------------3~---5---3--5--------5----------------|
A|-----------3--5----5--6-------------------------------------------------|
E|--3--5--6-------------------------------------------------3-------------|




VERSE - Listen for strumming pattern

 | Gm | A# | Dm | D# | Dm | Gm | A# | Dm | D# | Dm | D# | Dm | Cm | C7 |

E|--3----x----5----x----5----3----x----5----x----5----x----5----x---3--|   
B|--3----3----6----8----6----3----3----6----8----6----8----6----4---5--|
G|--3----3----7----8----7----3----3----7----8----7----8----7----5---3--|
D|--5----3----7----8----7----5----3----7----8----7----8----7----5---5--|
A|--5----1----5----6----5----5----1----5----6----5----6----5----3---3--|
E|--3----x----x----x----x----3----x----x----x----x----x----x----x---x--|




CHORUS

    Gm   F   C7       Gm   F   A#(A#sus4)    Gm  F  C7     Gm  F  Cm  C7

E|--3----1----3-------3----1----x--x--x------3---1---3-----3---1---3--3--|   
B|--3----1----5-------3----1----3--4--3------3---1---5-----3---1---4--5--|
G|--3----2----3-------3----2----3--3--3------3---2---3-----3---2---5--3--|
D|--5----3----5-------5----3----3--3--3------5---3---5-----5---3---5--5--|
A|--5----3----3-------5----3----1--1--1------5---3---3-----5---3---3--3--|
E|--3----1----x-------3----1----x--x--x------3---1---x-----3---1---x--x--|



CODA


Guitar 1 - riff

   Gm                  Cm                 Gm
E|-----------------------------8------------------10---------------10---------|
B|---------8---------------8-----8---8--------8------8---8-----8------8---8---|
G|-----7-----7---7-----8-----8-----8------7-----7------7---7-----7------7-----|
D|-8-----8-----8--------------------------------------------------------------|
A|----------------------------------------------------------------------------|
E|----------------------------------------------------------------------------|

Guitar 2 - weird droning noise

E|-----|
B|-----|
G|-----|
D|-----|
A|-----|
E|-3~--|

Guitar 3 - with acoustic guitar

E|--------------------------------------|
B|--------------------------------------|
G|--------------------------------------|
D|-5-5-5-------5-5-5b6r5-------5-5-5~---|
A|--------------------------------------|
E|--------------------------------------|






Gm           A#               Dm
You found me deep beneath the water
             D#                 Dm
This time it looked and felt so different
    Gm            A#          Dm
I'm begging to my loved ones, understand
      D#      Dm   D#         Dm            Cm          C7
I'm a useless man, the loving hand that you fell for

That you fell for


Gm        A#             Dm
I took my fear back to Galileo
             D#                   Dm
They told me son, just count your blessings
Gm                       A#                        Dm
I wandered through those streets that you wouldn't mend
      D#      Dm       D#            Dm
And I felt so low, the man I used to know
         Cm      C7
That you fell for, that you fell for

Gm        F         C7  
You know, oh, oh  I warned ya
Gm        F                   A#
You know, oh, I live in fear
Gm            F              C7  
Cause when my shadow moves I shudder
        Gm             F           Cm                 C7
For the fear inside my heart won't disappear, no dear 


Gm              A#              Dm  
Cause I sold my spirit for your soul
                  D#              Dm
I felt it running through my fingertips
Gm         A#                 Dm
I love you more than you will know
      D#           Dm
And I hope you understand
   Cm                    C7
My strength lies in your hands


Gm        F         C7
You know, oh, oh, I warned ya
Gm        F                   A#
You know, oh, I live in fear 
Gm            F              C7
Cause when my shadow moves I shudder
        Gm             F           Cm                 C7
For the fear inside my heart won't disappear, no dear 


A#          Cm   Gm                      A#
You took my only one, when I only wanted love
       Cm          Gm
When I only wanted love
[x5]
Tap to rate this tab
 
# A B C D E F G H I J K L M N O P Q R S T U V W X Y Z