Song name
# A B C D E F G H I J K L M N O P Q R S T U V W X Y Z

Boy And Bear - Fall At Your Feet tab

Fall At Your Feet - Boy & Bear

I've combined the tab by Jimmy Lynch with some minor chords changes

Capo on 3rd Fret

Intro - Am Fill

e ------0------------------|
B --------3-1-------1h3----|
G --2-2-------2-0h2--------|
D -------------------------|
A -------------------------|
E -------------------------|

e --------0----------------|
B ----------3-1-------1h3--|
G --2-2-2----------0h2-----|
D --------------0h2--------|
A -------------------------|
E -------------------------|

e ------0------------------|
B --------3-1-------1h3----|
G --2-2-------2-0h2--------|
D -------------------------|
A -------------------------|
E -------------------------|

e -------------------------|
B ------1-------3-----3----|
G --2-2---2-2/4---4/5---5--|
D -------------------------|
A -------------------------|
E -------------------------|

Whenever I fall at your feet

Am      C       Bm      E

I'm really close tonight
And I feel like I'm moving inside her
Lying in the dark
And I think that I'm beginning to know her

Am      C       F

Let it go
I'll be there when you call

C       G       Am      F

And whenever I fall at your feet
You let your tears rain down on me
Whenever I touch your slow turning pain

Am      C       Bm      E

You're hiding from me now

Am Fill x 1
                                Bm              E 
There's something in the way that you're talking
                Am              G#
The words don't sound right
                Bm              E       Am
But I hear them all moving inside you

Am      C       F

Go.. I'll be waiting when you call

C       G       Am      F

Hey and whenever I fall at your feet
You let your tears rain down on me
Whenever I touch your slow turning pain

C       G       Am      F

The finger of blame has turned upon itself
And I'm more than willing to offer myself
Do you want my presence or need my help?
Who knows where that might lead?

Am      G
Am      G
Am      G
Am      G

I fall..

Am      G
Am      G

Whenever I fall
Tap to rate this tab
# A B C D E F G H I J K L M N O P Q R S T U V W X Y Z