Song name
# A B C D E F G H I J K L M N O P Q R S T U V W X Y Z

Boyce Avenue - Mr Brightside tab

The Killers - Mr. Brightside
Tabbed & Arranged by: Alejandro Manzano of Boyce Avenue

www.YouTube.com/BoyceAvenue

video of me playing/singing it:
http://www.youtube.com/watch?v=kL3enVPDuF0

Tuning: C  G  C  G  A  D

 x = mute
 / = slide up
 \ = slide down

Intro/Verse/Outro:
---------0---------------0---------------0---------------0-------|
-----------5---------------5---------------5---------------5-----|
-----5-------5-------5-------5-------5-------5-------5-------5---|
---4---4-------4---4---4-------4---4---4-------4---4---5-------4-|
-5---------------4-----------------------------------------------|
---------------------------------5---------------5---------------|

Pre-Chorus:
---------0---------------0---------------0---------------0-------|
-----------3---3-----------3---3-----------3---3-----------3---0-|
-----0-------0-------0-------0-------0-------0-------0-------0---|
---4---4-----------4---4-----------2---2-----------2---2---------|
-2---------------2---------------0---------------0---------------|
-----------------------------------------------------------------|

---------0---------------0---------------0---------------0-------|
-----------5---------------5---------------5---------------5-----|
-----5-------5-------5-------5-------5-------5-------5-------5---|
---0---0-------0---0---0-------0---0---0-------0---0---0-------0-|
-----------------------------------------------------------------|
-5---------------5---------------5---------------5---------------|

---------0---------------0---------------0---------------0-------|
-----------3---3-----------3---3-----------3---3-----------3---0-|
-----0-------0-------0-------0-------0-------0-------0-------0---|
---4---4-----------4---4-----------2---2-----------2---2---------|
-2---------------2---------------0---------------0---------------|
-----------------------------------------------------------------|

-x-
-3-
-0-
-0-
-x-
-5-

Chorus:
-2----5----0----0-|
-3----3----3----5-|
-0----0----0----0-|
-0----0----4----7-|
-0----x----2----0-|
-0----5-----------|

Bridge:
----------------------5---------------------------|
-7---7---8---10---8-------8---7---7---7---8---7---|
---0---0---0----0---------------------------------|
--------------------------------------------------|
------------------------------------------------0-|
--------------------5---5---5---5---9---9---9-----|

-----------------|
-5---3---2---3-/-|
-----------------|
-----------------|
---0---0---0---0-|
-----------------|

Ending:
-0--0--0-|
-5--3--2-|
-0--0--0-|
-7--2--2-|
-0--0--0-|
---------|
Tap to rate this tab
 
# A B C D E F G H I J K L M N O P Q R S T U V W X Y Z