Song name
# A B C D E F G H I J K L M N O P Q R S T U V W X Y Z

Boyce Avenue - Teenage Dream tab

Hey guys, hope you like it, this is how we play it with mmy friends:

First Guitar: 

Palm Muted

G                      [3 5 5 4 3 3]
Bm                     [x 2 4 4 3 2]
A                      [5 7 7 6 5 5]
D                      [5 7 7 7 5 5]




G
You think I'm pretty
        Bm        A 
Without any make-up on
You think I'm funny
When I tell the puch line wrong
G
I know you get me
                   Bm            D               
So I'll let my walls come down, down




2 guitar:


And Easy tab :

E||-----------------------------|     --------------------|
B||-7-7----7-7----7-9-11-9-6-7--|     -----7/11/9~--------|
G||------8------8---------------|     --------------------| 
D||-----------------------------| x3  --------------------|
A||-----------------------------|     --------------------|
E||-----------------------------|     --------------------|


E||-------------------------------------------------|
B||------7-6--------6-6-----------------------------|
G||----------8--8-8-----3-6-8----8-6----------------|  x 2
D||-------------------------------------------------|
A||-------------------------------------------------|
E||-------------------------------------------------|

E||-------------------------------------------------|
B||-----------------6-7-11--------------------------|
G||--3-6-8----3-6-8---------------------------------|  
D||-------------------------------------------------|
A||-------------------------------------------------|
E||-------------------------------------------------|

E||--------------------------------------------------------------------|
B||--7-7-7---7-7-7---7-7-7---7---7-7---7-7-7---7---7--11-9-77----------|
G||------- 8--8---8--------8---8-----8-------8---8--8------------------|  x 2
D||--------------------------------------------------------------------|
A||--------------------------------------------------------------------|
E||--------------------------------------------------------------------|



You can add a 3 guitar playing the chords (letting them ring) it will sound 
better, hope this helps you. Bye
Tap to rate this tab
 
# A B C D E F G H I J K L M N O P Q R S T U V W X Y Z