Song name
# A B C D E F G H I J K L M N O P Q R S T U V W X Y Z

Boyce Avenue - Fast Car tab

-------------------------------------------------------------------------------
                             Fast Car - Boyce Avenue
-------------------------------------------------------------------------------
Tabbed by: sammichblooper

Tuning: Capo 3

Chords:
C: x32010
G: 320033
Cadd9: x32033
D: xx0232

RIFF;
e|--------------------------------------------------------|
B|------0h1p0----3----3--------8--------8------8----------|
G|--------------------------------------------------------|
D|--------------------------------------------------------|
A|------3----------------------7--------5------5----------|
E|---------------3----3-----------------------------------|

TURN AROUND THINGY;
e|---------------------------------------------------------------|
B|------0h1p0----3-----3--------8----9----8-----7----8----7------|
G|---------------------------------------------------------------|
D|----------------------------------------------0----------------|
A|------3-----------------------7--------------------------------|
E|---------------3-----3-----------------------------------------|


CHORUS;
                       C
See i remember we were driving
 (C) 
driving in your car
 G
speed so fast i felt like i was drunk
 Cadd9
city lights lay out before us 
         D
and your arm felt nice wrapped round my shoulder and
Cadd9      G
i-i had a feeling that i belonged
    Cadd9      G
and i-i had a feeling i could be someone
 Cadd9       G
be someone, be someone

Thanks, and enjoy :3

************************************

| /   slide up
| \   slide down
| h   hammer-on
| p   pull-off
| ~   vibrato
| +   harmonic
| x   Mute note
| b   Bend
| pb  Pre-bend
| br  Bend release
| pbr Pre-bend release
| brb Bend release bend

************************************
Tap to rate this tab
# A B C D E F G H I J K L M N O P Q R S T U V W X Y Z