Song name
# A B C D E F G H I J K L M N O P Q R S T U V W X Y Z

Boyce Avenue - Here Without You tab

Here without you Ė Boyce Avenue

I hope my first tab will help you guys to learn this song. This is not that 
difficult, just listen to the song and you will get it easily..

For corrections, suggestions and reactions, you can send me an email or message at 
Arnel28_Jr@yahoo.com

And kindly rate my tab.. THANK YOU!!! :)

ENJOY!!!

Legend:
/ slide up
0 open string

Chords to be use:
Verse 1 & 2: Bm - G
Chorus: D - A - Bm - G - A
Bridge: Bm - D - A - G

Intro up to the verse:

Bm                                      G            A hundred days...
e |---------------------------------------------------------------|
B |-------3-----2----2-----3---------------3-------------0--------|
G |-----4---4-----4----4-----4---------------0---------0---0------|
D |----4-----4------4----4-----4--------0------0-----0-------0----|
A |---2--------------------------0----2----------0-0-----------0--|
E |---------------------------------3-----------------------------|
        
       that made me older...                        ...pretty face
e |---------------------------------------------------------------|
B |-------3-----2----2-----3---------------2---3--2--3/5----------|
G |-----4---4-----4----4-----4---------------0--0--0--------------|
D |----4-----4-----4-----4-----4--------0-----0--0----------------|
A |---2--------------------------0-----2--------------------------|
E |---------------------------------3-----------------------------|

Bm                                      G           A thousand lies...
e |---------------------------------------------------------------|
B |-------3-----2----2-----3---------------3-------------0--------|
G |-----4---4-----4----4-----4---------------0---------0---0------|
D |----4-----4------4----4-----4--------0------0-----0-------0----|
A |---2--------------------------0----2----------0-0-----------0--|
E |---------------------------------3-----------------------------|

         had made me colder...                       ...at this the same
e |---------------------------------------------------------------|
B |-------3-----2----2-----3---------------2---3--2--3/5----------|
G |-----4---4-----4----4-----4---------------0--0--0--------------|
D |----4-----4-----4-----4-----4--------0-----0--0----------------|
A |---2--------------------------0-----2--------------------------|
E |---------------------------------3-----------------------------|

Bm                                      G                       
e |---------------------------------------------------------------|
B |-------3-----2----2-----3---------------3-------------0--------|
G |-----4---4-----4----4-----4---------------0---------0---0------|
D |----4-----4------4----4-----4--------0------0-----0-------0----|
A |---2--------------------------0----2----------0-0-----------0--|
E |---------------------------------3-----------------------------|

         But all the miles that seperate
e |---------------------------------------------------------------|
B |-------3-----2----2-----3---------------2---3--2--3/5----------|
G |-----4---4-----4----4-----4---------------0--0--0--------------|
D |----4-----4-----4-----4-----4--------0-----0--0----------------|
A |---2--------------------------0-----2--------------------------|
E |---------------------------------3-----------------------------|
        

         disappear now when Iím dreaminí of your face
      Bm                            G                   
e |---------------------------------------------------------------|
B |-------3-----2----2-----3---------------3-------------2/3------|
G |-----4---4-----4----4-----4---------------0---------0----------|
D |----4-----4------4----4-----4--------0------0-----0------------|
A |---2--------------------------0----2----------0-0--------------|
E |---------------------------------3-----------------------------|

Chorus:
D                            A
  I'm here without you, baby
                                Bm
But you're still on my lonely mind
                           G           A                D
I think about you, baby, and I dream about you all the time
                          A
I'm here without you, baby
                                  Bm
But you're still with me in my dreams
        G       A
And tonight, there's only you and me, yeah

e |---------------------------------------------------------------|
B |-------3-----2----2-----3---------------2---3--2--3/5----------|
G |-----4---4-----4----4-----4---------------0--0--0--------------|
D |----4-----4-----4-----4-----4--------0-----0--0----------------|
A |---2--------------------------0-----2--------------------------|
E |---------------------------------3-----------------------------|

e |---------------------------------------------------------------|
B |-------3-----2----2-----3---------------3-------------0--------|
G |-----4---4-----4----4-----4---------------0---------0---0------|
D |----4-----4------4----4-----4--------0------0-----0-------0----|
A |---2--------------------------0----2----------0-0-----------0--|
E |---------------------------------3-----------------------------|

Verse II:
        
          Bm                                    G
         The miles...                                ...to say hello
e |---------------------------------------------------------------|
B |-------3-----2----2-----3---------------2---3--2--3/5----------|
G |-----4---4-----4----4-----4---------------0--0--0--------------|
D |----4-----4-----4-----4-----4--------0-----0--0----------------|
A |---2--------------------------0-----2--------------------------|
E |---------------------------------3-----------------------------|

        Bm                                      G
                                                   Iíve heared this...
e |---------------------------------------------------------------|
B |-------3-----2----2-----3---------------3-------------0--------|
G |-----4---4-----4----4-----4---------------0---------0---0------|
D |----4-----4------4----4-----4--------0------0-----0-------0----|
A |---2--------------------------0----2----------0-0-----------0--|
E |---------------------------------3-----------------------------|

          Bm                                    G
         life is overrated...                           ...as we go
e |---------------------------------------------------------------|
B |-------3-----2----2-----3---------------2---3--2--3/5----------|
G |-----4---4-----4----4-----4---------------0--0--0--------------|
D |----4-----4-----4-----4-----4--------0-----0--0----------------|
A |---2--------------------------0-----2--------------------------|
E |---------------------------------3-----------------------------|

        Bm                                      G
                                                 ohh yeah, yeah
e |---------------------------------------------------------------|
B |-------3-----2----2-----3---------------3-------------0--------|
G |-----4---4-----4----4-----4---------------0---------0---0------|
D |----4-----4------4----4-----4--------0------0-----0-------0----|
A |---2--------------------------0----2----------0-0--------------|
E |---------------------------------3-----------------------------|


2nd Chorus with plucking

Repeat this 2x

        D                                   A                        Bm
e |--------------3-2-0-2-3-2-0-------------2-0--------------2---2-----|
B |-------3--------------------------2---------2-0-----3------3--3----|
G |------2--2-----------------------2-2---------------4-4------4--4---|
D |-----0----0---------------------2----2------------4----4-----4--0--|
A |---0--------------------------0------------------2-----------------|
E |-------------------------------------------------------------------|
        
        G
e |----------------------------|
B |---------3------------0-----|
G |-----------0--------0---0---|
D |-------0-----0----0------0--|
A |-----2--------0-0-----------|
E |---3------------------------|

Bridge: (Strumming)

Bm                   D
   Everything I know
                  A
And anywhere I go
                            G           
It gets hard but it wonít take away my love
Bm                             D
   But when the last one falls
                                A
And when itís all said and done
                            G                  Bm
It gets hard but it wonít take away my love, whoa




Repeat Chorus: (Strumming)

D                            A
  I'm here without you, baby
                                Bm
But you're still on my lonely mind
                           G            A                   D
I think about you, baby, and I dream about you all the time
                             A
I'm here without you, baby
                                  Bm
But you're still with me in my dreams
        G       A                   D    A         Bm     G          A
And tonight, there's only you and me, yeah, ohh yeah, whoa whoa whoa
        D
ohh whoa



-End-
Tap to rate this tab
# A B C D E F G H I J K L M N O P Q R S T U V W X Y Z