Song name
# A B C D E F G H I J K L M N O P Q R S T U V W X Y Z

Boyz Ii Men - Dreams tab

e]--------------------------------------|
B]--11p10--8--------------------10------|
G]--------------10--10/12---10----------|
D]--------------------------------------|
A]--------------------------------------|
E]--------------------------------------|


e]--------------------------------------------|
B]--10h11p10p8--------------------------------|
G]--------------------10--10/12---------10----|
D]----------------------------------12--------|
A]--------------------------------------------|
E]--------------------------------------------|

e]-------------------------------------------------8-----------|
B]-10--11--10h11p10p8-----------------------------------8/10---|
G]----------------------------10--10/12---10-------------------|
D]-------------------------------------------------------------|
A]-------------------------------------------------------------|
E]-------------------------------------------------------------|

e]-------------------------------------------------------------|
B]--11p10--8---------------------------------------------------|
G]--------------10--7---10/12----------------------------------|
D]----------------------------------10/12--12h13p12p10---------|
A]-------------------------------------------------------------|
E]-------------------------------------------------------------|
Tap to rate this tab
 
# A B C D E F G H I J K L M N O P Q R S T U V W X Y Z