Song name
# A B C D E F G H I J K L M N O P Q R S T U V W X Y Z

Boyz Ii Men - Sara Smile tab

Help us improve GuitareTab! Take a short survey!
Boyz II Men
Sara Smile
Tuning: Standard
Transcribed by Soch Hean

Intro: (Played acoustically)
|--------------------------------------------------------|
|-5h6-5-------------5-----------3---------3--------------|
|--------7--------5-----------3---------3----------------|
|---------------5-----------5---------5------------------|
|-----------0-3-----------5---------3--------------------|
|-----------------------3--------------------------------|

|--------5-------------------------------------3------------|
|-5h6-8-------------5--5-----------3---------3--------------|
|-----------------5--------------3---------3----------------|
|---------------5--------------5---------5------------------|
|-----------0-3--------------5---------3--------------------|
|--------------------------3--------------------------------|

Verse:
|--------------------------------------------------------|
|-------5h6--5-------5h6-p5------------------------------|
|-----7----------7-------------------9-----------9-------|
|---7--------------7--------------10----------10---------|
|-5----------------------------10----------10------------|
|----------------------------8---------------------------|

|--------------------------------------------------------|
|-----------------------------------------5--------------|
|-------7--------7-----------6--------6-7----------------|
|-----8--------8-----------7-----------------------------|
|---8--------8-----------7-------------------------------|
|-6--------------------5---------------------------------|

|--------------------------------------------------------|
|-------5h6--5-------5h6-p5------------------------------|
|-----7----------7-------------------9-----------9-------|
|---7--------------7--------------10----------10---------|
|-5----------------------------10----------10------------|
|----------------------------8---------------------------|

|--------------------------------------------------------|
|-----------------------------------------5--------------|
|-------7--------7-----------6--------6-7----------------|
|-----8--------8-----------7-----------------------------|
|---8--------8-----------7-------------------------------|
|-6--------------------5---------------------------------|

Bridge:
Bb  C  C#m  Dm
Bb  C  Bb  Dm

Chorus:
Dm  C  Bb
Dm  C  Bb

Verse 2: 
|--------------------------------------------------------|
|-------5h6--5-------5h6-p5------------------------------|
|-----7----------7-------------------9-----------9-------|
|---7--------------7--------------10----------10---------|
|-5----------------------------10----------10------------|
|----------------------------8---------------------------|

|--------------------------------------------------------|
|-----------------------------------------5--------------|
|-------7--------7-----------6--------6-7----------------|
|-----8--------8-----------7-----------------------------|
|---8--------8-----------7-------------------------------|
|-6--------------------5---------------------------------|

|--------------------------------------------------------|
|-------5h6--5-------5h6-p5------------------------------|
|-----7----------7-------------------9-----------9-------|
|---7--------------7--------------10----------10---------|
|-5----------------------------10----------10------------|
|----------------------------8---------------------------|

|--------------------------------------------------------|
|-----------------------------------------5--------------|
|-------7--------7-----------6--------6-7----------------|
|-----8--------8-----------7-----------------------------|
|---8--------8-----------7-------------------------------|
|-6--------------------5---------------------------------|

Bridge:
Bb  C  C#m  Dm
Bb  C  Bb  Dm

Chorus:
Dm  C  Bb
Dm  C  Bb

(Repeat Chorus)

Chords:
Bb:  688766
C:   8-10-10-9-8-8
C#m: x4665x
Dm:  x57765
Related for Sara Smile tab