Song name
# A B C D E F G H I J K L M N O P Q R S T U V W X Y Z

Boyz Ii Men - On Bended Knee tab

Help us improve GuitareTab! Take a short survey!
I can't believe noone tabbed the piano intro

this sounds right


Piano:
e|-11---8-------------------------------------|
B|--------11--8-9----9-8-----------9-9-8----8-|
G|-----------------8------8-10-----------10---|
D|--------------------------------------------|
A|--------------------------------------------|
E|--------------------------------------------|
then
e|-11---8------------------------------------------------------------------|
B|--------11--8-9----9-8-----------9-9-8----8--9---------------------------|
G|-----------------8------8-10-----------10--------------------------------|
D|--------------------------------------------------10h11p10---------------|
A|--------------------------------------------------11--------11---11-10-8-|
E|-------------------------------------------------------------------------|


Bass: Pick them slowly
G|------------------------|---------------------------------------------|
D|-----1---3---5----------|-----1---3---5-------------------------6-5-3-|
A|-4---------------1----6-|-4---------------1---6---------3h4p3---------|
E|------------------------|-------------------------4---4---------------|
Related for On Bended Knee tab