Guitaretab - guitar tabs
Song name
# A B C D E F G H I J K L M N O P Q R S T U V W X Y Z

Boyz Ii Men - Water Runs Dry tab

Name: Najam Iqbal
email: najam_i@hotmail.com

Hi everyone
From the first time i hear this song I have loved it and wanted to play it. However all
the tabs I have found for this just don't seem to work.  About a month ago i heard Paolo
Santos version of this song and he played it amazingly. Listening to it over and over I
made some progress but it didnít sound right. Until I hit the head stock of my guitar on
my wardrobe and was forced to retune my guitar, I tuned it wrong by accident (Wardrobe
changed low E to F) however when i played the song it was perfect. Hope you guys enjoy
this.

Tuning (F A# D# G# C F) Can Be Played in standard tuning but this is more accurate
 
|-------0----------0--3-----------------------0-[      ]----3--|
|-------1-------------------------1-----------1-[ Palm ]----0--|
|-----0---------0--------------0-----------0--0-[ Mute ]----0--|
|---2--------2--------------2-----------2-----2-[ and  ]----0--|
|-3-------3--------2-----3-----------3--------3-[ Hold ]-0--2--|
|---------------------3-------------------------[      ]----3--|
   .....(intro)......

|-------------------------3----|
|----------1-----------1--0----|
|-------0-----------0-----0----|
|----2-----------2--------0----|
|-3-----------3-----------2----|
|-------------------------1----|
        We don't even talk any More

|----------------------0-[      ]-0----|
|----------1-----------1-[ Palm ]-1----|
|-------0-----------0--0-[ Mute ]-0----|
|----2-----------2-----2-[ and  ]-2----|
|-3-----------3--------3-[ Hold ]-3----|
|------------------------[      ]------|
        And we don't even know what we ar---gue about

|-------------------------3----------|
|----------1-----------1---------0---|
|-------0-----------0---------0------|
|----2-----------2-------------------|
|-3-----------3----------------------|
|-------------------------3----------|
        Don't even say I love you no more

|----------------------------------3----|
|----------1-----------1----------------|
|-------0-----------0-----------0-------|
|----2-----------2-----------2----------|
|-3-----------3-----------3-------------|
|----------------------------------3----|
        Cuz sayin how we feel is no longer allowed
[ Tab from: http://www.guitaretab.com/b/boyz-ii-men/2243.html ]
|-------------------1--------------------------------1-|
|----------------1-----------------------0--------1----|
|-------2-----2-----------------------1--------2-------|
|----3-----3-----------------2-----2--------3----------|
|-3-----------------------2-----2----------------------|
|----------------------0-------------------------------|
        Some people work things out and some dont know how to change

|-1-1--------0-------------1---------1----|
|-1-1--------0-------------3---------1----|
|-2-2--------0-------------2---------2----|
|-3-3--------2-------------0---------3----|
|------------2----------------------------|
|------------0----------------------------|
  Let's don't wait till the water run dry

|-1----1------------------------0-------------1----|
|-1----1------------------------0-------------3----|
|-2----2------------------------0-------------2----|
|-3----3------------------------2-------------0----|
|-------------------------------2------------------|
|-------------------------------0------------------|
       We might watch our whole lives pass us by

|-0-------------------------------------------1----|
|-1-----1-------------------------------------1----|
|-2--2-------------0--------------------------2----|
|-2-------------0-----------------------------3----|
|-0----------2-------------------------------------|
|---------3----------------------------------------|
          Let's don't wait till the water run dry

|-2----1-------------------------3----|
|-3----3-------------------------0----|
|-2----2----------------0--------0----|
|-0----0-------------2-----------0----|
|-0---------------3--------------2----|
|-2------------------------------3----|
       we'll make the biggest mistake of our livers

|------------0----------0--3-----------------------0-[      ]----3--|
|------------1-------------------------1-----------1-[ Palm ]----0--|
|----------0---------0--------------0-----------0--0-[ Mute ]----0--|
|--------2--------2--------------2-----------2-----2-[ and  ]----0--|
|------3-------3--------2-----3-----------3--------3-[ Hold ]-0--2--|
|--------------------------3-------------------------[      ]----3--|

dont do it baby.   Ohhhh Ohhhh OOOOOO Ohhh ooo OOOO

That should be it. For the rest listen to the song and use whichever pattern fits

Have Fun!

Najam Iqbal
Related for Water Runs Dry tab