Song name
# A B C D E F G H I J K L M N O P Q R S T U V W X Y Z

Brad Paisley - Celebrity tab

----------------------------------------------------------|
----------------------------------------------------------|
----------------------------------------------------------|
---------0h2~-2-----2h3--2--------------------------------|
----------------3-----------3b/5b--3v---------------------|
----3-----------------------------------------------------|

-----------------------------------------------------------|
-----------------------------------------------------------|
-----------------------------------------------------------|
-----------0h2~-2-----2h3--2-------------------------------|
------0-3----------3-----------3b/5b--3v------------0-3-3\-|
----3------------------------------------------3-----------|
Tap to rate this tab
# A B C D E F G H I J K L M N O P Q R S T U V W X Y Z