Song name
# A B C D E F G H I J K L M N O P Q R S T U V W X Y Z

Brad Paisley - When I Get Where Im Going tab

Brad Paisley
When I Get Where I'm Going
Capo on 3rd Fret

Intro

E---------0------------0--2-------4-----------------------0-|
B-3----------0h2--------------3------5-------5--2h3---------|
G-----2------2-----2------------2--------2------------2-----|
D---4------------2----------4----------2------------4-------|
A-0-----0----0-------0----0----------0-----0----0-------0---|
E-----------------------------------------------------------|

                            When I get where I'm Going,

E------------------0----2h0-------------------------------0-|
B-2-----2h0--------0---------2---------0---0h2--3-2-----3---|
G-2---2-----2h0----0--0------2-4-----2----------2-2---2-----|
D---2--------------2-----------2---2----------------0-------|
A-0----------------2-2-----------0-------0------2-4---------|
E------------------0---------2-4----------------------------|
,

E---0h2---------2-------------------------------0-----------|
B---------------3---2-------2--2-------2------------------0-|
G-----------------4-2---2------2---2----------2---1---1-----|
D-0-------------0-2---2----------2----------2---------------|
A-------------------------4----------4----------------------|
E-----------------4-2----------2----------0---------0-------|

 Chorus

E-------0---0h2---------------------------------------0----|
B-----3---------------------------0---0h2------------------|
G---2-------------4x----------2-----------4x--2---2-----1--|
D-0-------0-----------------2-----------------2-2-------2--|
A-------------------------0-----0---0----------------------|
E---------------------------------------------0-----0---0--|

E---------0------------------------0---0h2---------------2-|
B-----3-----2-------2--0-2-----3---------------------2-----|
G---2-------2---2------2-2---2-------------4x------2-------|
D-0-----0-----2------------0-----0---0-----------4---------|
A-----------0-----0----0-4---------------------------------|
E----------------------------------------------2-------2---|


E-------------0---------0----------------------------------|
B----------------------------------------------------------|
G-4x--2---2-----2---2-----1----repeat-intro,-next-verse----|
D-----2-2-------2-2-------2--------------------------------|
A----------------------------------------------------------|
E-----0-----0---0-----0---0--------------------------------|

Bridge

E-----------------------------------------------------------|
B----------------3---------3-------3------------------------|
G-2-4----0---0-----0-0----2--2-2--2--2------------0---2-----|
D-------2--2----2---2---0-----0-0-----0-----3-------3-----3-|
A-0-2-3-----3-3----------------------------3--3-3-------3---|
E----------------------------------------1-----1---------1--|

E----------------------------------------------------------|
B-----------------3----------------------------------------|
G----0-------0---0-----------------------------------------|
D---0--0-0--0--0-------------------------------------------|
A----------------------------------------------------------|
E-3-----3-3-----3------------------------------------------|

After bridge, when singing "When I get where I'm going....
.....iingggingggingggggggg. The D chord is strummed
differently.  Alternate between each other until ending.


  innnggginggggg
  A               D       A      D      A
E------0--------------0-------0------0------0--------------|
B-----2--------------3-------2------3------2---------------|
G----2--------------2-------2------2------2----------------|
D---2--------------4-------2------4------2-----------------|
A--0--------------0-------0------0------0------------------|
E----------------------------------------------------------|


Ending - extra on chords

E------------------------------------0h2-------------------|
B-2--5--------0---0h2------3--2-----3----------------------|
G-2--4------2------------2-2--2----2-----------------------|
D-0--2----2------------2---0--2---0------------------------|
A-------0-------0----------2--4--0-------------------------|
E-2--4-----------------------------------------------------|
Tap to rate this tab
# A B C D E F G H I J K L M N O P Q R S T U V W X Y Z