Song name
# A B C D E F G H I J K L M N O P Q R S T U V W X Y Z

Brand New - Gasoline tab

So this is my first tab, and this isn't the whole song, but I'll try to tab the rest. 
and corrections would be great if you have any.

Intro/Verse
e--------------------|
B--------------------|
G--------------------|
D----9~--12~--4~--5~-|
A----7~--10~--5~--7~-|
E----0~--0~---0~--0~-|

Pre-Chorus
e-----------------------------------|
B-----------------------------------|
G-----------------------------------|
D---7-7-7-7-7-7-7-7-7-7-7-7-5-5-5-5-|
A---7-7-7-7-7-7-7-7-7-7-7-7-5-5-5-5-|
E---5-5-5-5-5-5-5-5-5-5-5-5-3-3-3-3-|

Guitar 1
Intro/verse in Background

Guitar 2
e---19~--17~--14~--|
B------------------|
G------------------|
D------------------|
A------------------|
E------------------|

Verse 2
Guitar 1
e--------------------|
B--------------------|
G--------------------|
D----9~--12~--4~--5~-|
A----7~--10~--5~--7~-|
E----0~--0~---0~--0~-|

Guitar 2
e-----------|
B-----------|
G-----------|
D---2-2---2-|
A---2-2---2-|
E---0-0---0-|
    . .   .
    p.m.  p.m.
Tap to rate this tab
 
# A B C D E F G H I J K L M N O P Q R S T U V W X Y Z