Song name
# A B C D E F G H I J K L M N O P Q R S T U V W X Y Z

Brand New - Jude Law And A Semester Abroad tab

Song: Jude Law and a Semester Abroad
Artist: Brand New
Album: Your Favorite Weapon
Tuning: Drop D (D,A,D,G,B,E)

I realize that Brand New almost always uses half step down and drop C#, but I'm almost 
that this song is in drop D.

Intro/verse(guitar 1)
E-------------------------------------------------------------|x4
B------6------------------------------------------------------|
G----3--3-----3-3---------------------------------------------|
D---5-5--5---3-3-3-3---8--7-8--8-8888-------------------------|
A--3------3-1-----1----5--5-5--5-5555-------------------------|
D--------------------5555555555555555-------------------------|
pm .. .     .. .     .. .. . .. .

Verse(guitar 2)
E-------------------------------------------------------------|x2
B-------------------------------------------------------------|
G--55555555-33333333------------------------------------------|
D--55555555-33333333-5555555555555555-------------------------|
A--33333333-11111111-5555555555555555-------------------------|
D--------------------5555555555555555-------------------------|
pm .. .     .. .     .. .. . ..

Verse pt. 2(guitar 1)
E-------------------------------------------------------------|x2
B-----4--------------1----------------------------------------|
G---5--5-5---------3--3-3-------------------------------------|
D----5--5-----------3--3--------------------------------------|
A-3--------------1--------------------------------------------|
D-------------------------------------------------------------|
pm.  .  .        .  .  .

Verse pt. 2(guitar 2)
E-------------------------------------------------------------|x2
B-------------------------------------------------------------|
G-55555555-------33333333-------------------------------------|
D-55555555-------33333333-------------------------------------|
A-33333333-------11111111-------------------------------------|
D-------------------------------------------------------------|
pm.. .. .        .. .. .

Pre-chorus(both guitars)
E-------------------------------------------------------------|x1
B-------------------------------------------------------------|
G-------------------------------------------------------------|
D-8888888888888888-6666666666666666---------------------------|
A-8888888888888888-6666666666666666---------------------------|
D-8888888888888888-6666666666666666---------------------------|

Chorus(guitar 1)
E-------------------------------------------------------------|x1
B-------------------------------------------------------------|
G-88---77------5555555555555555-3333333333333333--------------|
D-88---88------5555555555555555-3333333333333333--------------|
A-66---55------3333333333333333-1111111111111111--------------|
D-------------------------------------------------------------|

E-----------------------------------------------------------------|
B-----------------------------------------------------------------|
G------88-8777--------88-87-------------88-8777------88-8777------|
D-------------888----------8-101010------------888----------888---|
A-66-6------------55-5--------------------------------------------|
D-----------------------------------1010-----------88-------------|

Chorus(guitar 2)
E-------------------------------------------------------------|x2
B-------------------------------------------------------------|
G--------------5555555555555555-3333333333333333--------------|
D-11---00------5555555555555555-3333333333333333--------------|
A-11---00------3333333333333333-1111111111111111--------------|
D-11---00-----------------------------------------------------|

Repeat verses, pre-chorus and chorus.

Bridge(guitar 1)
E-------------------------------------------------------------|
B-------------------------------------------------------------|
G-------------------7h8--10p8--7h8--8p7--7h8--10p8--7h8--8p7--|
D-------------------------------------------------------------|
A-----------------66---66----66---66---66---66----66---66-----|
D-------------------------------------------------------------|\
pm                ..   ..    ..   ..   ..   ..    ..   ..       \
                                                          repeat 3 times
(guitar 1)                                                      /
E-------------------------------------------------------------|/
B-------------------------------------------------------------|
G-------------------------------------------------------------|
D-----10-----10-----10-----10---8---8---8---8-----------------|
A-----10-----10-----10-----10---8---8---8---8-----------------|
D-101010-101010-101010-101010-888-888-888-888-----------------|
pm. .    . .    . .    . .    ..  ..  ..  ..

Bridge(guitar 2)
E-------------------------------------------------------------|
B-------------------------------------------------------------|
G-8-------8-------8-------7-----------------------------------|
D-8-------8-------8-------8-----------------------------------|
A-6-------6-------6-------5-----------------------------------|
D-------------------------------------------------------------|

(guitar 2)
E-------------------------------------------------------------|
B-------------------------------------------------------------|
G-------------------------------------------------------------|
D-----10-----10-----10-----10---8---8---8---8-----------------|
A-----10-----10-----10-----10---8---8---8---8-----------------|
D-101010-101010-101010-101010-888-888-888-888-----------------|
pm. .    . .    . .    . .    ..  ..  ..  ..

Right before last chorus(both guitars)
E-------------------------------------------------------------|
B-------------------------------------------------------------|
G-------------------------------------------------------------|
D-10101010101010101010101010101010-8--------------------------|
A-10101010101010101010101010101010-8--------------------------|
D-10101010101010101010101010101010-8--------------------------|
pm. . . . . . . . . . . . . . . .

Last Chorus(both guitars)
E-------------------------------------------------------------|
B-------------------------------------------------------------|
G-------------------------------------------------------------|
D-1-1-111-1-11-1111-0-0-000-0-00-0000-6-6-666-6-66-6666-------|
A-1-1-111-1-11-1111-0-0-000-0-00-0000-6-6-666-6-66-6666-------|
D-1-1-111-1-11-1111-0-0-000-0-00-0000-6-6-666-6-66-6666-------|\
                                                                \
continued                                                repeat 4 times
E-------------------------------------------------------------|/
B-------------------------------------------------------------|
G-5-5-555-3-33-3333-------------------------------------------|
D-5-5-555-3-33-3333-------------------------------------------|
A-3-3-333-1-11-1111-------------------------------------------|
D-------------------------------------------------------------|

Outro(both guitars)
E-------------------------------------------------------------|
B-------------------------------------------------------------|
G-5-5-555-3-33-3-5-8~-----------------------------------------|
D-5-5-555-3-33-3-5-8~-----------------------------------------|
A-3-3-333-1-11-1-3-6~-----------------------------------------|
D-------------------------------------------------------------|


That's it. E-mail me at SaintJimmy10@yahoo.com.
Tap to rate this tab
# A B C D E F G H I J K L M N O P Q R S T U V W X Y Z