Song name
# A B C D E F G H I J K L M N O P Q R S T U V W X Y Z

Brantley Gilbert - Grits Girls Raised In The South tab

----------------------------------------------------------------------------
                             G.R.I.T.S - Brantley 
----------------------------------------------------------------------------
Tabbed by: Joe Witkowski
Email: Kangaroojew9@aim.com

Tuning: Standard

Intro: Play twice
e|-------------------------------------------------------------------------|
B|-------------------------------------------------------------------------|
G|------------------------2------2h4p2-----2-2-----2h4p2-------------------|
D|----2-----2-----2-------0------0------0-------0---------0--2--2-----2----|
A|----------2------------------------------------------------------0-------|
E|--0----0-----0-------3------3-----------------------------------------3b-|

Verse:Play until pre chorus
e|-------------------------------------------------------------------------|
B|-------------------------------------------------------------------------|
G|------------------0----0----0-----1----1----1-----2----2----2------------|
D|---2---2----2-----0----0----0-----0----0----0-----2----2----2------------|
A|---2---2----2-------------------0----0----0-----0----0----0--------------|
E|-0---0----0-----3----3----3-------------------------------------3b-------|


Pre Chorus:
e|--------------------------------3-------------3---3-----3--3-------------
B|--------------------------------3-------------3---3-----3--3-------------
G|------------------0----0----0---0---2---------0---0-----0--0-------2-----
D|---2---2----2-----0----0----0---0---2---------0---0-----0--0-------2-----
A|---2---2----2-------------------2---0---------2---2-----2--2---0-0-0-----
E|-0---0----0-----3----3----3-----3---------3-3-3---3-3-3-3--3-------------

-------------------3---3-----3-------------------------------|
-------------------3---3-----3--x-x--------------------------|
--2------2-2-------0---0-----0--x-x---2----------------------|             
--2------2-2-------0---0-----0--x-x---2------------0---------|
--0--0-0-0-0-------2---2-----2--x-x---0---0--2--3------------|
---------------3-3-3---3-3-3-3-------------------------3b----|

Chorus: Strum as needed 
e|-------3----2---------| 
B|-------3----3---------|
G|-------0----2----2----|
D|--2----0----0----2----|
A|--2----2---------0----|
E|--0----3--------------|

Chorus ends with
e|---------------| 
B|---------------|
G|--2-2---2------|
D|--2-2---2------|
A|--0-0---0------|
E|---------------|

Intro: play intro again

Fill right during 2nd intro
e|-------------------------------------------------------------------------|
B|-------------------------------------------------------------------------|
G|--------------12---------------------------------------------------------|
D|--12--14-14-------14--12--14-------------------5--5----------------------|
A|------------------------------------5b---7--7--------7*------------------|
E|-------------------------------------------------------------------------|

Verse: 2nd time
Pre Chorus: 2nd time
Chorus: 2nd time


Solo: 
e|-----------------------------------------------------------------------|
B|----------------------------------------------10b12---10b12r10p8-------|
G|-------------------------------------------------------------------9---|
D|-----------------------------------------------------------------------|
A|-5---7--5--7----5---7--5--7----5---7--5--7-----------------------------|
E|-----------------------------------------------------------------------|

e|-----------------------------------------------------------------------|
B|-----------------------------------------------------------------------|
G|--------------------------------2b4r2p0-----0--0-----------------------|
D|-----------------------------------------2--------2--------------------|
A|-5---7--5--7----5---7--5--7--------------------------------------------|
E|------------------------------------------------------5--4--3--0--3--0-|

e|-----3---2------------------------|
B|-----3---3------------------------|
G|-----0---2--2----2-2-2-2-2--------|
D|-2---0---0--2----2-2-2-2-2--------|
A|-2---2------0----0-0-0-0-0--------|
E|-0---3----------------------3b----|

Chorus: One more time
Verse: One more time
Tap to rate this tab
# A B C D E F G H I J K L M N O P Q R S T U V W X Y Z