Song name
# A B C D E F G H I J K L M N O P Q R S T U V W X Y Z

Bratmobile - And I Live In A Town Where The Boys Amputate Their Hearts tab

-------------------------------------------------------------------------------
                            And I Live In A Town Where the Boys Amputate Their Hearts - Bratmobile
-------------------------------------------------------------------------------

Tabbed by: Ash
Tuning: Standard EADGBe

VERSE

e|---------------------------------------------------------------------------|
B|---------------------------------------------------------------------------|
G|---------------------------------------------------------------------------|
D|---------------------------------------------------------------------------|
A|-------5-7-5---------------------------------------------------------------|
E|-7-7-7-------7-5-2-2-2-0---0-0-0-------------------------------------------|

CHORUS

e|---------------------------------------------------------------------------|
B|---------------------------------------------------------------------------|
G|---------------------------------------------------------------------------|
D|---------------------------------------------------------------------------|
A|-----------------7-7-7-5---5-5-5-------------------------------------------|
E|-7-7-7-7-7-7-7-7-----------------------------------------------------------|

************************************

| /   slide up
| \   slide down
| h   hammer-on
| p   pull-off
| ~   vibrato
| +   harmonic
| x   Mute note
| b   Bend
| pb  Pre-bend
| br  Bend release
| pbr Pre-bend release
| brb Bend release bend

************************************
Tap to rate this tab
# A B C D E F G H I J K L M N O P Q R S T U V W X Y Z