Song name
# A B C D E F G H I J K L M N O P Q R S T U V W X Y Z

Bread - Goodbye Girl chords

Highlighted       Show chord diagrams
 GOODBYE GIRL

by: Bread
 
INTRO:
 
 E       G#m7    Asus2 A       B7

---------------------------------0---2---2-2-2-|
-5---------5---4-5-4-5-0---0h2---2---4---4-2-4-|
-4-----4---4---4---4---2---2-----2---2---2-2-2-|
-6---6---6-6---4---4---2---2-----2---4---4-4-4-|
-7-7-------7---6-------0---0-----0---2---2-2-2-|
---------------4-------------------------------|
 
 E       G#m7    Asus2 A       A/B
---------------------------------0---2---2---2-|
-5-----------5-4-5-4-5-0---0h2---2---2---2---2-|
-4-------4-----4---4---2---2-----2---2---2---2-|
-6-----6---6---4---4---2---2-----2---x---x---x-|
-7---7---------6-------0---0-----0---2---2---2-|
---------------4-------------------------------|
 
REFRAIN:
 
     E      G#m7          C#m7          G#m7
     All your...             for love...

 
     F#m7          C#m7          A             B7
 and now that...            must now...

 
     E             G#m7          C#m7          G#m7
   I know...                 the words...

     F#m7          G#m7          B             B7
 but darling...             once more.

 
CHORUS:
     E             G#m7          Asus2 A       B
 goodbye           doesn't... forever.

 
     E             G#m7          Asus2 A       F#m7   G#m7
 goodbye           doesn't...    never...   again.

 
     C#m7          G#m7          A             Am
       If you wake...          I won't...     away,

 
     F#m7          A             B7
 the things...  my goodbye...    bring you...

 
REPEAT LAST HALF OF INTRO.
 
REFRAIN.
 
CHORUS
Tap to rate this tab
# A B C D E F G H I J K L M N O P Q R S T U V W X Y Z