Song name
# A B C D E F G H I J K L M N O P Q R S T U V W X Y Z

Bread - If tab

Help us improve GuitareTab! Take a short survey!
deni_robert ->Indonesia

   4 2            3 4              2 4              2   3
|------0-----0---|------0-----0---|------0-----0---|------0-----0---|
|----2-----2-----|----0-----0-----|----0-----0-----|--0-----0-------|
|--4-----4-----4-|--4-----4-----4-|--4-----4-----4-|----2-----2---2-|
|----------------|----------------|----------------|----------------|
|0---------------|----------------|----------------|----------------|
|----------------|4---------------|3---------------|2---------------|


2 5 3              4 3                3 2            3 2 4
|------0-----0---|------0-----0---|------1-----1---|--------0-------|
|--3-----3-----3-|--2-----2-----2-|--0-----0-------|------3---------|
|----2-----2-----|----2-----2-----|----2-----2---2-|----1-----------|
|----------------|----------------|0---------------|--2-------------|
|----------------|----------------|----------------|----------------|
|1---------------|0---------------|----------------|0---------------|
        If a


|------0-----0---|------0-----0---|------0-----0---|------0-----0---|
|----2-----2-----|----0-----0-----|----0-----0-----|--0-----0-------|
|--4-----4-----4-|--4-----4-----4-|--4-----4-----4-|----2-----2---2-|
|----------------|----------------|----------------|----------------|
|0---------------|----------------|----------------|----------------|
|----------------|4---------------|3---------------|2---------------|
Picture paints..                                                 the


|------0-----0---|------0-----0---|------1-----1---|--------0-------|
|--3-----3-----3-|--2-----2-----2-|--0-----0-------|------3---3-----|
|----2-----2-----|----2-----2-----|----2-----2---2-|----1-------1---|
|----------------|----------------|0---------------|--2-----------2-|
|----------------|----------------|----------------|----------------|
|1---------------|0---------------|----------------|0---------------|
words will..                                                    If a


|------0-----0---|------0-----0---|------0-----0---|------0-----0---|
|----2-----2-----|----0-----0-----|----0-----0-----|--0-----0-------|
|--4-----4-----4-|--4-----4-----4-|--4-----4-----4-|----2-----2---2-|
|----------------|----------------|----------------|----------------|
|0---------------|----------------|----------------|----------------|
|----------------|4---------------|3---------------|2---------------|
face could..                                                   theres


|------0-----0---|------0-----0---|------1-----1---|--------0-------|
|--3-----3-----3-|--2-----2-----2-|--0-----0-------|------3---3-----|
|----2-----2-----|----2-----2-----|----2-----2---2-|----1-------1---|
|----------------|----------------|0---------------|--2-----------2-|
|----------------|----------------|----------------|----------------|
|1---------------|0---------------|----------------|0---------------|
no-one home..                                                     and

1 2 2 2          1 2 2 2            2 2 2              2 3
|------2-----2---|------2-----2---|------2-----2---|------2-----2---|
|--2-----2-----2-|--2-----2-----2-|--2-----2-----2-|--0-----0-----0-|
|----2-----2-----|----2-----2-----|----2-----2-----|----2-----2-----|
|----------------|----------------|----------------|0---------------|
|----------------|----------------|----------------|----------------|
|2---------------|1---------------|0---------------|----------------|
if my love..                                                      you

4                2 2 3 2 2        2 3 2 2            3 2 4
|------0-----0---|------2-----2---|------2-----2---|--------0-------|
|--0-----0-----0-|--------2-----2-|--3-----3-----3-|------3---------|
|----0-----0-----|----3-----3-----|----2-----2-----|----1-----------|
|----------------|--2-------------|----------------|--2-------------|
|4---------------|----------------|2---------------|----------------|
|----------------|2---------------|----------------|0---------------|
come and pour..                                                  if a


|------0-----0---|------0-----0---|------0-----0---|------0-----0---|
|----2-----2-----|----0-----0-----|----0-----0-----|--0-----0-------|
|--4-----4-----4-|--4-----4-----4-|--4-----4-----4-|----2-----2---2-|
|----------------|----------------|----------------|----------------|
|0---------------|----------------|----------------|----------------|
|----------------|4---------------|3---------------|2---------------|
man could be..                                                    to-


|------0-----0---|------0-----0---|------1-----1---|--------0-------|
|--3-----3-----3-|--2-----2-----2-|--0-----0-------|------3---3-----|
|----2-----2-----|----2-----2-----|----2-----2---2-|----1-------1---|
|----------------|----------------|0---------------|--2-----------2-|
|----------------|----------------|----------------|----------------|
|1---------------|0---------------|----------------|0---------------|
morrow and..                                                   if the


|------0-----0---|------0-----0---|------0-----0---|------0-----0---|
|----2-----2-----|----0-----0-----|----0-----0-----|--0-----0-------|
|--4-----4-----4-|--4-----4-----4-|--4-----4-----4-|----2-----2---2-|
|----------------|----------------|----------------|----------------|
|0---------------|----------------|----------------|----------------|
|----------------|4---------------|3---------------|2---------------|
world should..                                                    I'd


|------0-----0---|------0-----0---|------1-----1---|--------0-------|
|--3-----3-----3-|--2-----2-----2-|--0-----0-------|------3---3-----|
|----2-----2-----|----2-----2-----|----2-----2---2-|----1-------1---|
|----------------|----------------|0---------------|--2-----------2-|
|----------------|----------------|----------------|----------------|
|1---------------|0---------------|----------------|0---------------|
spend the end..                                                  then


|------2-----2---|------2-----2---|------2-----2---|------2-----2---|
|--2-----2-----2-|--2-----2-----2-|--2-----2-----2-|--0-----0-----0-|
|----2-----2-----|----2-----2-----|----2-----2-----|----2-----2-----|
|----------------|----------------|----------------|0---------------|
|----------------|----------------|----------------|----------------|
|2---------------|1---------------|0---------------|----------------|
one by one..                                                      and


|------0-----0---|------2-----2---|------2-----2---|--------0-------|
|--0-----0-----0-|--------2-----2-|--3-----3-----3-|------3---------|
|----0-----0-----|----3-----3-----|----2-----2-----|----1-----------|
|----------------|--2-------------|----------------|--2-------------|
|4---------------|----------------|2---------------|----------------|
|----------------|2---------------|----------------|0---------------|
you and I..                                                     away.

   4 2              4                3 2              222
|------0-----0---|------0-----0---|------0-----0---|-----0----------|
|----2-----2---2-|----0-----0---0-|--3-----3-----3-|----2-----------|
|--4-----4-------|--4-----4-------|----2-----2-----|---2------------|
|----------------|----------------|----------------|--2-------------|
|0---------------|0---------------|0---------------|-0--------------|
|----------------|----------------|----------------|----------------|
Related for If tab