Song name
# A B C D E F G H I J K L M N O P Q R S T U V W X Y Z

Bread - Aubrey tab

Help us improve GuitareTab! Take a short survey!
Song: Aubrey                                     Ultimate-guitar.com
Band name: BREAD
Tablature by: Em-Em 'rajie' Bereso II

Add me sa Friendster nyu!! soul_emem911@yahoo.com

Follow nyu lang to!! Perfect na perfect!! lalong-lalo na kpag may rythm..
Mabuhay!!! mga tga Ormoc!!! Biz-rack R U L E Z!!!
DaK'iT band Long Live!!! heheh!!! wab yah all!!!


|-------------3----------------1--0----------------1------------------|
|--1-----1-----------0------------------1-------1------------0---1--3-|
|------0-----------0----------------------0--2------------------------|
|----2-----------0---------2-----------------3----------3--2----------|
|--3----------2----------0--------------3-----------------------------|
|---------------------------------------------------------------------|


|--1--------1--1-------------------------3--0---------------------------|
|--1-----1-----1----------1---1---3--1-------------1--------3---1---0---|
|-----2--------2--------0------------------------2----------------------|
|--0------------------2------------------------2------------------------|
|-------------------3---------2-------------0---------------------------|
|--------------3----------------------------------------3---------------|


|-----------------------------------1----------------------------------------|
|--1---0---------------0---1---3----1-------3---1---------------------0------|
|----------2---0---2----------------2---------------2---0-----------0--------|
|--3---------------2----------------0-------------------3---------0----------|
|-----------------------------------------------------------2--0---------0-2-|
|----------------------------------------3-----------------------------------|


                        Am                                    Em
|--0--5--7--8--7--5--0---------0------0---1--0-----------------0--3--0-|
|----------------------------1--------1----------3---1---3-----0-------|
|--------------------------2-------0---------------------------0-------|
|------------------------2-------------------------------------2-------|
|--------------------0-----------------------------------------2-------|
|--------------------------------------------------------------0-------|


  F
|-----------------------------------------------------------------------|
|-----------3----0---1--0----------------3--0-------------3--0--1--0----|
|-2--2--2------------------0----2--2--2---------2--2--2---------------0-|
|-----------------------------------------------------------------------|
|-----------------------------------------------------------------------|
|-1--1--1--------0--------------1--1--1-----0---1--1--1------0----------|

|------------------------------------0-------------------------0--1--0----|
|-------------3--0----------------1-----1--------------------0----------3-|
|--2--2--2----------2----0-----0-----------0---------------1--------------|
|---------------------------2-----------------2---------2-----------------|
|------------------------3---------------------------2--------------------|
|--1--1--1----------------------------------------0-----------------------|

|--------------0------------0--0--0--0--5--3--0-------------0-----------|
|--1--------1------1---3-------------------------3--1---3------1--1---3-|
|--------2--------------------------------------------------------------|
|-----2-----------------------------------------------------------------|
|--0------------------------3-----------------------1-------------------|
|--------------------------------------------------------------1--1-----|

|---0----------0----8--------|
|------1---3-----------------|
|----------------------------|
|----------------------------|
|----------------------------|
|----------------------------|


Rate nyu pow!!!! hehehe!!!!
mabuhay tga Ormoc Biz-Rock R U L E Z!!!!
DaK'iT Band Long Live!!!

ZelJiE i wAb u!!! Pra Chau 2!!! mwaahhugzZzz!!!

soul_emem911@yahoo.com
Related for Aubrey tab