Song name
# A B C D E F G H I J K L M N O P Q R S T U V W X Y Z

Breaking Benjamin - Believe tab

-------------------------------------------------------------------------------
			     Believe - Breaking Benjamin
-------------------------------------------------------------------------------
Tabbed by: metalmonkey147
Email:

Tuning: Drop C

|---------------------------------------------------------------------------|
|---------------------------------------------------------------------------|
|---------------------------------------------------------------------------|
|---4--------------------4--------------------------------------------------|
|----------------------3----------------------------------------------------|
|-----4-2h4--4--4--4-2-----4-2h4--4--4--4-5--2------------------------------|

|---------------------------------------------------------------------------|
|---------------------------------------------------------------------------|
|---------------------------------------------------------------------------|
|---4--------------------4-------------------2------------------------------|
|----------------------3------------------3---------------------------------|
|-----4-2h4--4--4--4-2-----4-2h4--4--4--4-----------------------------------|

|---------------------------------------------------------------------------|
|---------------------------------------------------------------------------|
|---------------------------------------------------------------------------|
|------------------------4--------------------------------------------------|
|----------------------3----------------------------------------------------|
|-----4-2h4--4--4--4-2-----4-2h4--4--4--4-5--2------------------------------|

|---------------------------------------------------------------------------|
|---------------------------------------------------------------------------|
|---------------------------------------------------------------------------|
|---4--------------------4-------------------2------------------------------|
|----------------------3------------------3---------------------------------|
|-----4-2h4--4--4--4-2-----4-2h4--4--4--4-----------------------------------|

|---------------------------------------------------------------------------|
|---------------------------------------------------------------------------|
|---------------------------------------------------------------------------|
|---------------------------------------------------------------------------|
|---------------------------------------------------------------------------|
|---2-4-----2-2-2-4----2-2-2-4----2-2-2-4--5-4------------------------------|
    . .     . . . .    . . . .    . . . .  . .
|---------------------------------------------------------------------------|
|---------------------------------------------------------------------------|
|---------------------------------------------------------------------------|
|--------------------------------------2---5--------------------------------|
|---------------------------------X-X--2---5--------------------------------|
|---2-4-----2-2-2-4----2-2-2-4----X-X--2---5--------------------------------|
    . .     . . . .    . . . .
|---------------------------------------------------------------------------|
|---------------------------------------------------------------------------|
|---------------------------------------------------------------------------|
|---2-4-----2-2-2-4----2-2-2-4----2-2-2-4--5-4------------------------------|
|---2-4-----2-2-2-4----2-2-2-4----2-2-2-4--5-4------------------------------|
|---2-4-----2-2-2-4----2-2-2-4----2-2-2-4--5-4------------------------------|

|---------------------------------------------------------------------------|
|---------------------------------------------------------------------------|
|---------------------------------------------------------------------------|
|---2-4-----2-2-2-4----2-2-2-4---------2---5--------------------------------|
|---2-4-----2-2-2-4----2-2-2-4----X-X--2---5--------------------------------|
|---2-4-----2-2-2-4----2-2-2-4----X-X--2---5--------------------------------|

|---------------------------------------------------------------------------|
|---------------------------------------------------------------------------|
|---------------------------------------------------------------------------|
|--4--2--5--4--2--4--2--4--5--4--7---4--2--5--4--2--4--2--4---7----7--------|
|--4--2--5--4--2--4--2--4--5--4--7---4--2--5--4--2--4--2--4---7----7--------|
|--4--2--5--4--2--4--2--4--5--4--7---4--2--5--4--2--4--2--4---7----7--------|

|---------------------------------------------------------------------------|
|---------------------------------------------------------------------------|
|---------------------------------------------------------------------------|
|--4--2--5--4--2--4--2--4--5--4--7---4--2--5--4--2--4--2--4---7----7--------|
|--4--2--5--4--2--4--2--4--5--4--7---4--2--5--4--2--4--2--4---7----7--------|
|--4--2--5--4--2--4--2--4--5--4--7---4--2--5--4--2--4--2--4---7----7--------|

|---------------------------------------------------------------------------|
|---------------------------------------------------------------------------|
|---------------------------------------------------------------------------|
|---2-4-----2-2-2-4----2-2-2-4----------4p2---------------------------------|
|---2-4-----2-2-2-4----2-2-2-4----X-X--------4-3p2p0------------------------|
|---2-4-----2-2-2-4----2-2-2-4----X-X-----------------4---------------------|

|---------------------------------------------------------------------------|
|---------------------------------------------------------------------------|
|---------------------------------------------------------------------------|
|---------------------------------------------------------------------------|
|---------------------------------------------------------------------------|
|-----------2-2-2-4----2-2-2-4----2-2-2-4--5-4------------------------------|
            . . . .    . . . .    . . . .  . .
|---------------------------------------------------------------------------|
|---------------------------------------------------------------------------|
|---------------------------------------------------------------------------|
|--------------------------------------2---5--------------------------------|
|---------------------------------X-X--2---5--------------------------------|
|---2-4-----2-2-2-4----2-2-2-4----X-X--2---5--------------------------------|
    . .     . . . .    . . . .
|---------------------------------------------------------------------------|
|---------------------------------------------------------------------------|
|---------------------------------------------------------------------------|
|---2-4-----2-2-2-4----2-2-2-4----2-2-2-4--5-4------------------------------|
|---2-4-----2-2-2-4----2-2-2-4----2-2-2-4--5-4------------------------------|
|---2-4-----2-2-2-4----2-2-2-4----2-2-2-4--5-4------------------------------|

|---------------------------------------------------------------------------|
|---------------------------------------------------------------------------|
|---------------------------------------------------------------------------|
|---2-4-----2-2-2-4----2-2-2-4---------2---5--------------------------------|
|---2-4-----2-2-2-4----2-2-2-4----X-X--2---5--------------------------------|
|---2-4-----2-2-2-4----2-2-2-4----X-X--2---5--------------------------------|

|---------------------------------------------------------------------------|
|---------------------------------------------------------------------------|
|---------------------------------------------------------------------------|
|--4--2--5--4--2--4--2--4--5--4--7---4--2--5--4--2--4--2--4---7----7--------|
|--4--2--5--4--2--4--2--4--5--4--7---4--2--5--4--2--4--2--4---7----7--------|
|--4--2--5--4--2--4--2--4--5--4--7---4--2--5--4--2--4--2--4---7----7--------|

|---------------------------------------------------------------------------|
|---------------------------------------------------------------------------|
|---------------------------------------------------------------------------|
|--4--2--5--4--2--4--2--4--5--4--7---4--2--5--4--2--4--2--4---7----7--------|
|--4--2--5--4--2--4--2--4--5--4--7---4--2--5--4--2--4--2--4---7----7--------|
|--4--2--5--4--2--4--2--4--5--4--7---4--2--5--4--2--4--2--4---7----7--------|

|---------------------------------------------------------------------------|
|---------------------------------------------------------------------------|
|---4---6---7---9\---4---6---7---9\-----------------------------------------|
|---4---6---7---9\---4---6---7---9\-----------------------------------------|
|---2---4---5---7\---2---4---5---7\-----------------------------------------|
|---------------------------------------------------------------------------|

|---------------------------------------------------------------------------|
|---------------------------------------------------------------------------|
|---4---6---7---9\---4---6---7---9------------------------------------------|
|---4---6---7---9\---4---6---7---9------------------------------------------|
|---2---4---5---7\---2---4---5---7------------------------------------------|
|---------------------------------------------------------------------------|

|---------------------------------------------------------------------------|
|---------------------------------------------------------------------------|
|---------------------------------------------------------------------------|
|---------------------------------------------------------------------------|
|---------------------------------------------------------------------------|
|--4--2--5--4--2--4--2--4--5--4--7---4--2--5--4--2--4--2--4---7----7--------|
   .  .  .  .  .  .  .  .  .  .  .   .  .  .  .  .  .  .  .   .    .
|---------------------------------------------------------------------------|
|---------------------------------------------------------------------------|
|---------------------------------------------------------------------------|
|---------------------------------------------------------------------------|
|------------------------------------4--2--5--4--2--4--2--4---5-------------|
|--4--2--5--4--2--4--2--4--5--4--7---4--2--5--4--2--4--2--4---5-------------|
   :  :  :  :  :  :  :  :  :  :  :   :  :  :  :  :  :  :  :   :
|---------------------------------------------------------------------------|
|---------------------------------------------------------------------------|
|---------------------------------------------------------------------------|
|--4--2--5--4--2--4--2--4--5--4--7---4--2--5--4--2--4--2--4---7----7--------|
|--4--2--5--4--2--4--2--4--5--4--7---4--2--5--4--2--4--2--4---7----7--------|
|--4--2--5--4--2--4--2--4--5--4--7---4--2--5--4--2--4--2--4---7----7--------|

|---------------------------------------------------------------------------|
|---------------------------------------------------------------------------|
|---------------------------------------------------------------------------|
|--4--2--5--4--2--4--2--4--5--4--7---4--2--5--4--2--4--2--4---7----7--------|
|--4--2--5--4--2--4--2--4--5--4--7---4--2--5--4--2--4--2--4---7----7--------|
|--4--2--5--4--2--4--2--4--5--4--7---4--2--5--4--2--4--2--4---7----7--------|

|---------------------------------------------------------------------------|
|---------------------------------------------------------------------------|
|------------------------------------------------------------------5--------|
|--4--2--5--4--2--4--2--4--5---------4--2--5--4--2--4--2--4--5-----5--------|
|--4--2--5--4--2--4--2--4--5---------4--2--5--4--2--4--2--4--5-----3--------|
|--4--2--5--4--2--4--2--4--5---------4--2--5--4--2--4--2--4--5--------------|

|---------------------------------------------------------------------------|
|---------------------------------------------------------------------------|
|---------------------------------------------------------------------------|
|--4--2--5--4--2--4--2--4--5---------4--2--5--4--2--4--2--4--5-----7--------|
|--4--2--5--4--2--4--2--4--5---------4--2--5--4--2--4--2--4--5-----7--------|
|--4--2--5--4--2--4--2--4--5---------4--2--5--4--2--4--2--4--5-----7--------|

|---------------------------------------------------------------------------|
|---------------------------------------------------------------------------|
|---------------------------------------------------------------------------|
|---4--------------------4--------------------------------------------------|
|----------------------3----------------------------------------------------|
|-----4-2h4--4--4--4-2-----4-2h4--4--4--4-5--2------------------------------|

|---------------------------------------------------------------------------|
|---------------------------------------------------------------------------|
|---------------------------------------------------------------------------|
|---4------------------------4--2--4----------------------------------------|
|----------------------3-----4--2--4----------------------------------------|
|-----4-2h4--4--4--4-2-------4--2--4----------------------------------------|


************************************

| .   palm mute
| :   slight palm mute
| /   slide up
| \   slide down
| h   hammer-on
| p   pull-off
| ~   vibrato
| *   harmonic
| x   Mute note
| b   Bend
| pb  Pre-bend
| br  Bend release
| pbr Pre-bend release
| brb Bend release bend

************************************
Tap to rate this tab
 
# A B C D E F G H I J K L M N O P Q R S T U V W X Y Z