Guitaretab - guitar tabs
Song name
# A B C D E F G H I J K L M N O P Q R S T U V W X Y Z

Breaking Benjamin - Here We Are tab

Song: Here We Are
Album: Phobia
Band: Breaking Benjamin
Tunning: C G C F A d
Tabber: Tom

 Okay, so basically this is the exact same thing as the other super awesome tab on here,
I noticed that the acoustic guitar can be played in Drop C rather then tunning down all
way to Drop Bb. This tab might be useless to some, but im just putting it out there 
This is only the acoustic guitar for the song.

Intro:

d|------------------------------------------|
A|--6--6----6-6-----------------------------|
F|--7--7--7-7-7-7-7-7-----------------------|
C|--7--7--7-7-7-7-7-7--7--7--7-7-8-8-8-8-8--|
G|--5--5--5-5-5-5-5-5--5--5--5-5-8-8-8-8-8--|
C|---------------------5--5--5-5-8-8-8-8-8--|

d|--------------------------------|
A|--6--6----6-6-------------------|
F|--7--7--7-7-7-7-7-7-------------|
C|--7--7--7-7-7-7-7-7--7--7--7-8--|
G|--5--5--5-5-5-5-5-5--5--5--5-8--|
C|---------------------5--5--5-8--|

Verse 1:

d|------------------------------------------|
A|--6--6----6-6-----------------------------|
F|--7--7--7-7-7-7-7-7-----------------------|
C|--7--7--7-7-7-7-7-7--7--7--7-7-8-8-8-8-8--| x3
G|--5--5--5-5-5-5-5-5--5--5--5-5-8-8-8-8-8--|
C|---------------------5--5--5-5-8-8-8-8-8--|

d|--------------------------------|
A|--6--6----6-6-------------------|
F|--7--7--7-7-7-7-7-7-------------|
C|--7--7--7-7-7-7-7-7--7--7--7-8--|
G|--5--5--5-5-5-5-5-5--5--5--5-8--|
C|---------------------5--5--5-8--|

Chorus:

d|--------------------------------------------------------|
A|--------------------------------------------------------|
F|-------------------5-5-5-5-5-x6-7-7-7-7-7---------------|
C|--xxxx-3-3-3-3-3-3-5-5-5-5-5-x6-7-7-7-7-7-5-5-5-5-8-x8--|
G|--xxxx-3-3-3-3-3-3-3-3-3-3-3-x4-5-5-5-5-5-5-5-5-5-8-x8--|
C|--xxxx-3-3-3-3-3-3------------------------5-5-5-5-8-x8--|

d|---------------------------------------------------|
A|---------------------------------------------------|
F|--------------5-5-5-5-5-x6-7-7-7-7-7---------------|
C|--3-3-3-3-3-3-5-5-5-5-5-x6-7-7-7-7-7-5-5-5-5-8-x8--|
G|--3-3-3-3-3-3-3-3-3-3-3-x4-5-5-5-5-5-5-5-5-5-8-x8--|
C|--3-3-3-3-3-3------------------------5-5-5-5-8-x8--|

Pre-verse Thingie:
I know here the electric guitar plays that really cool thing, but im not sure, but im
gonna say the acoustic guitar plays this, cause it works out for me

d|--------------------------------|
A|--6--6----6-6-------------------|
F|--7--7--7-7-7-7-7-7-------------|
C|--7--7--7-7-7-7-7-7--7--7--7-8--|
G|--5--5--5-5-5-5-5-5--5--5--5-8--|
C|---------------------5--5--5-8--|


Verse 2:

d|------------------------------------------|
A|--6--6----6-6-----------------------------|
F|--7--7--7-7-7-7-7-7-----------------------|
C|--7--7--7-7-7-7-7-7--7--7--7-7-8-8-8-8-8--| x2
G|--5--5--5-5-5-5-5-5--5--5--5-5-8-8-8-8-8--|
C|---------------------5--5--5-5-8-8-8-8-8--|

d|--------------------------------|
A|--6--6----6-6-------------------|
F|--7--7--7-7-7-7-7-7-------------|
C|--7--7--7-7-7-7-7-7--7--7--7-8--|
G|--5--5--5-5-5-5-5-5--5--5--5-8--|
C|---------------------5--5--5-8--|

Chorus 2:

d|--------------------------------------------------------|
A|--------------------------------------------------------|
F|-------------------5-5-5-5-5-x6-7-7-7-7-7---------------|
C|--xxxx-3-3-3-3-3-3-5-5-5-5-5-x6-7-7-7-7-7-5-5-5-5-8-x8--|
G|--xxxx-3-3-3-3-3-3-3-3-3-3-3-x4-5-5-5-5-5-5-5-5-5-8-x8--|
C|--xxxx-3-3-3-3-3-3------------------------5-5-5-5-8-x8--|

d|---------------------------------------------------|
A|---------------------------------------------------|
F|--------------5-5-5-5-5-x6-7-7-7-7-7---------------|
C|--3-3-3-3-3-3-5-5-5-5-5-x6-7-7-7-7-7-5-5-5-5-8-x8--|
G|--3-3-3-3-3-3-3-3-3-3-3-x4-5-5-5-5-5-5-5-5-5-8-x8--|
C|--3-3-3-3-3-3------------------------5-5-5-5-8-x8--|
[ Tab from: http://www.guitaretab.com/b/breaking-benjamin/146639.html ]
Bridge:

d|----------------------------------|
A|----------------------------------|
F|----------------------------------|
C|----------------------------------|
G|--7--7-7-7-7-7-7--1--1-1-1-1-1-1--|
C|--7--7-7-7-7-7-7--1--1-1-1-1-1-1--|

d|-----------------------------------------------------------------|
A|-----------------------------------------------------------------|
F|--3-3-3-3-3-3-3--------------------------------------------------|
C|--3-3-3-3-3-3-3-5-5-5-5-5-5-5-5-3-3-3-3-3-3-3-3-1-1-1-1-1-1-1-1--|
G|--1-1-1-1-1-1-1-5-5-5-5-5-5-5-5-3-3-3-3-3-3-3-3-1-1-1-1-1-1-1-1--|
C|----------------5-5-5-5-5-5-5-5-3-3-3-3-3-3-3-3-1-1-1-1-1-1-1-1--|

d|--------------------------------------------------------------------|
A|--------------------------------------------------------------------|
F|--3-3-3-3-3-3-3-----------------------------------------------------|
C|--3-3-3-3-3-3-3-5-5-5-5-5-5-5-5-3-3-3-3-3-3-3-3-1-1-1-1-1-1-1-1-0~~~|
G|--1-1-1-1-1-1-1-5-5-5-5-5-5-5-5-3-3-3-3-3-3-3-3-1-1-1-1-1-1-1-1-0~~~|
C|----------------5-5-5-5-5-5-5-5-3-3-3-3-3-3-3-3-1-1-1-1-1-1-1-1-0~~~|

Solo:

Just incase you wanted teh solo, i tabbed it

d|---------------------------------15----------------------10-12-13~~|
A|---------------------------------------------------10-13-----------|
F|--------10-12-12brbrb-12-10----10---12brb----10brb-----------------|
C|--10/12---------------------12------------12-----------------------|
G|-------------------------------------------------------------------|
C|-------------------------------------------------------------------|

d|--12brb-10-8-10-10--10/12-12-12/13-13-13/15-17-17~~~~17---15~~15---|
A|---------------------------------------------------------15--------|
F|-------------------------------------------------------------------|
C|-------------------------------------------------------------------|
G|-------------------------------------------------------------------|
C|-------------------------------------------------------------------|

d|--13\10-10b-10brb10brb10brb-------8--------------8h10-8h10-12-13--|
A|---------------------------8h10-8---8-10brb-8h10------------------|
F|------------------------------------------------------------------|
C|------------------------------------------------------------------|
G|------------------------------------------------------------------|
C|------------------------------------------------------------------|

The other guitar, the acoustic, plays this under the solo

d|---------------------------------------------------|
A|---------------------------------------------------|
F|--------------5-5-5-5-5-x6-7-7-7-7-7---------------|
C|--3-3-3-3-3-3-5-5-5-5-5-x6-7-7-7-7-7-5-5-5-5-8-x8--|
G|--3-3-3-3-3-3-3-3-3-3-3-x4-5-5-5-5-5-5-5-5-5-8-x8--|
C|--3-3-3-3-3-3------------------------5-5-5-5-8-x8--|x2

Chorus 3:

d|--------------------------------------------------------|
A|--------------------------------------------------------|
F|-------------------5-5-5-5-5-x6-7-7-7-7-7---------------|
C|--xxxx-3-3-3-3-3-3-5-5-5-5-5-x6-7-7-7-7-7-5-5-5-5-8-x8--|
G|--xxxx-3-3-3-3-3-3-3-3-3-3-3-x4-5-5-5-5-5-5-5-5-5-8-x8--|
C|--xxxx-3-3-3-3-3-3------------------------5-5-5-5-8-x8--|

d|---------------------------------------------------|
A|---------------------------------------------------|
F|--------------5-5-5-5-5-x6-7-7-7-7-7---------------|
C|--3-3-3-3-3-3-5-5-5-5-5-x6-7-7-7-7-7-5-5-5-5-8-x8--|
G|--3-3-3-3-3-3-3-3-3-3-3-x4-5-5-5-5-5-5-5-5-5-8-x8--|
C|--3-3-3-3-3-3------------------------5-5-5-5-8-x8--|

Outro:

d|---------------------------------|
A|---------------------------------|
F|---------------------------------|
C|--3-3-3-3-3-3-5-5-5-5-8-x8-3~~~~~|
G|--3-3-3-3-3-3-5-5-5-5-8-x8-3~~~~~|
C|--3-3-3-3-3-3-5-5-5-5-8-x8-3~~~~~|

Done
Related for Here We Are tab
Here We Are chords by Breaking Benjamin