Guitaretab - guitar tabs
Song name
# A B C D E F G H I J K L M N O P Q R S T U V W X Y Z

Breaking Benjamin - Home tab

Band:  Breaking Benjamin
Song:  Home
Album: Saturate (2002)

Intro:

Eb|--------------------------|
Bb|----------------------3---|
Gb|----------------------3---|
Db|----------------------1---|
Ab|--------------------------|
Db|--0--0-0--0-0--0-0-0------|

Eb|---------------------------------|
Bb|-----------------------------3---|
Gb|-----------------------------3---|
Db|--0*--0*-0*--0*-0*--0*-0*-0--1---| x3
Ab|--0*--0*-0*--0*-0*--0*-0*-0--1---|
Db|--0*--0*-0*--0*-0*--0*-0*-0------|

Eb|-----------------------------9b--|
Bb|---------------------------------|
Gb|---------------------------------|
Db|--0*--0*-0*--0*-0*--0*-0*-0------|
Ab|--0*--0*-0*--0*-0*--0*-0*-0--3b--|
Db|--0*--0*-0*--0*-0*--0*-0*-0------|
(one guitar plays the high note and the other plays the low one)


Eb|---------------------------------|
Bb|-----------------------------3---|
Gb|-----------------------------3---|
Db|--0*--0*-0*--0*-0*--0*-0*-0--1---| x4
Ab|--0*--0*-0*--0*-0*--0*-0*-0--1---|
Db|--0*--0*-0*--0*-0*--0*-0*-0------|

Verse:

Eb|------------------|
Bb|--------------3---|
Gb|--------------3---|
Db|--------------1---| x8
Ab|--------------1---|
Db|--0--3--0--3------|
p.m..................

Eb|------------------|
Bb|------------------|
Gb|------------------|
Db|--5--8--5--8--1---| x2
Ab|--5--8--5--8--1---|
Db|--5--8--5--8--1---|


Eb|------------------|
Bb|--------------3---|
Gb|--------------3---|
Db|--------------1---| x2
Ab|--------------1---|
Db|--0--3--0--3------|
p.m..................


Chorus:

Eb|---------------------------------|
Bb|---------------------------------|
Gb|--5--5--5--5--5------------------|
Db|--5--5--5--5--5--3--3-3--3--3---| x2
Ab|--3--3--3--3--3--3--3--3--3--3---|
Db|-----------------1--1--1--1--1---|

Eb|------------------|
Bb|------------------|
Gb|------------------|
Db|--0--3--0--3--1---| x4
Ab|--0--3--0--3--1---|
Db|--0--3--0--3--1---|

Verse:

Eb|------------------|
Bb|--------------3---|
Gb|--------------3---|
Db|--------------1---| x8
Ab|--------------1---|
Db|--0--3--0--3------|
p.m..................

Eb|------------------|
Bb|------------------|
Gb|------------------|
Db|--5--8--5--8--1---| x2
Ab|--5--8--5--8--1---|
Db|--5--8--5--8--1---|

Eb|------------------|
Bb|--------------3---|
Gb|--------------3---|
Db|--------------1---| x2
Ab|--------------1---|
Db|--0--3--0--3------|
p.m..................

Chorus:

Eb|---------------------------------|
Bb|---------------------------------|
Gb|--5--5--5--5--5------------------|
Db|--5--5--5--5--5--3--3-3--3--3---| x2
Ab|--3--3--3--3--3--3--3--3--3--3---|
Db|-----------------1--1--1--1--1---|

Eb|-------------------------------------------------------------------|
Bb|-------------------------------------------------------------------|
Gb|--3--3-3-3-3-3-3-3-3-3-3-3-3-3-3-----------------------------------|
Db|--3--3-3-3-3-3-3-3-3-3-3-3-3-3-3--5--5-5-5-5-5-5-5-5-5-5-5-5-5-5---|
Ab|--1--1-1-1-1-1-1-1-1-1-1-1-1-1-1--5--5-5-5-5-5-5-5-5-5-5-5-5-5-5---|
Db|----------------------------------5--5-5-5-5-5-5-5-5-5-5-5-5-5-5---|

(Cont.)
[ Tab from: http://www.guitaretab.com/b/breaking-benjamin/122764.html ]
Eb|-------------------------------------------------------------------|
Bb|-------------------------------------------------------------------|
Gb|-------------------------------------------------------------------|
Db|--3--3-3-3-3-3-3-3-3-3-3-3-3-3-3--1--1-1-1-1-1-1-1-1-1-1-1-1-1-1---| x2
Ab|--3--3-3-3-3-3-3-3-3-3-3-3-3-3-3--1--1-1-1-1-1-1-1-1-1-1-1-1-1-1---|
Db|--3--3-3-3-3-3-3-3-3-3-3-3-3-3-3--1--1-1-1-1-1-1-1-1-1-1-1-1-1-1---|

Guitar 2

Eb|------8-----8---8-----5-----5---5-----3-----3---3-----1-----1---1--|
Bb|--8-8---8-8---8---5-5---5-5---5---3-3---3-3---3---1-1---1-1---1----|
Gb|-------------------------------------------------------------------|
Db|-------------------------------------------------------------------| x2
Ab|-------------------------------------------------------------------|
Db|-------------------------------------------------------------------|


Bridge: a.h.                (Cont.)  stop harmonics

Eb|---------------------    Eb|------------------|
Bb|---------------------    Bb|------------------|
Gb|---------------------    Gb|------------------|
Db|--------------------- x3 Db|--------------0---|
Ab|--5--8--5--8--5--6---    Ab|--5--8--5--8--0---|
Db|---------------------    Db|--------------0---|

Eb|------------------------------------|
Bb|------------------------------------|
Gb|------------------------------------|
Db|--0--3--0--3--1~---0--3--0--3--1*---| x2
Ab|--0--3--0--3--1~---0--3--0--3--1*---|
Db|--0--3--0--3--1~---0--3--0--3--1*---|

Eb|------------------------------------------------------------------------|
Bb|------------------------------------------------------------------------|
Gb|------------------------------------------------------------------------|
Db|--0--3--0--3--1~---0--3--0--3--1-x-x---0--3--0--3--1~---0--3--0--3--1---|
Ab|--0--3--0--3--1~---0--3--0--3--1-x-x---0--3--0--3--1~---0--3--0--3--1---|
Db|--0--3--0--3--1~---0--3--0--3--1-x-x---0--3--0--3--1~---0--3--0--3--1---|

Chorus:

Eb|-------------------------------------------------------------------|
Bb|-------------------------------------------------------------------|
Gb|--3--3-3-3-3-3-3-3-3-3-3-3-3-3-3-----------------------------------|
Db|--3--3-3-3-3-3-3-3-3-3-3-3-3-3-3--5--5-5-5-5-5-5-5-5-5-5-5-5-5-5---|
Ab|--1--1-1-1-1-1-1-1-1-1-1-1-1-1-1--5--5-5-5-5-5-5-5-5-5-5-5-5-5-5---|
Db|----------------------------------5--5-5-5-5-5-5-5-5-5-5-5-5-5-5---|

(Cont.)

Eb|-------------------------------------------------------------------|
Bb|-------------------------------------------------------------------|
Gb|-------------------------------------------------------------------|
Db|--3--3-3-3-3-3-3-3-3-3-3-3-3-3-3--1--1-1-1-1-1-1-1-1-1-1-1-1-1-1---| x4
Ab|--3--3-3-3-3-3-3-3-3-3-3-3-3-3-3--1--1-1-1-1-1-1-1-1-1-1-1-1-1-1---|
Db|--3--3-3-3-3-3-3-3-3-3-3-3-3-3-3--1--1-1-1-1-1-1-1-1-1-1-1-1-1-1---|

Guitar 2

Eb|------8-----8---8-----5-----5---5-----3-----3---3-----1-----1---1--|
Bb|--8-8---8-8---8---5-5---5-5---5---3-3---3-3---3---1-1---1-1---1----|
Gb|-------------------------------------------------------------------|
Db|-------------------------------------------------------------------| x4
Ab|-------------------------------------------------------------------|
Db|-------------------------------------------------------------------|

Outro:

Eb|---------------------------------|
Bb|-----------------------------3---|
Gb|-----------------------------3---|
Db|--0*--0*-0*--0*-0*--0*-0*-0--1---| x3
Ab|--0*--0*-0*--0*-0*--0*-0*-0--1---|
Db|--0*--0*-0*--0*-0*--0*-0*-0------|

Eb|-----------------------|
Bb|-----------------------|
Gb|-----------------------|
Db|--0*--0*--0*--0*--0*---|
Ab|--0*--0*--0*--0*--0*---|
Db|--0*--0*--0*--0*--0*---|

* Mute (Shorten Note)
~ Vibrato
a.h. Artificial Harmonics
p.m. Palm Mute
b Bend
Related for Home tab