Song name
# A B C D E F G H I J K L M N O P Q R S T U V W X Y Z

Breaking Benjamin - Home tab

-------------------------------------------------------------------------------
			      Home - Breaking Benjamin
-------------------------------------------------------------------------------
Tabbed by: metalmonkey147
Email:

Tuning: Drop C

|-------------------------|
|---------------------4---|
|---------------------4---|
|---------------------2---|
|---------------------2---|
|-1--1-1--1-1--1-1--1-2---|
  *  * *  * *  * *

|----------------------------------------------------|
|---------------------4------------------------4-----|
|---------------------4------------------------4-----|
|-1--1-1--1-1--1-1--1-2----1--1-1--1-1--1-1--1-2-----|
|-1--1-1--1-1--1-1--1-2----1--1-1--1-1--1-1--1-2-----|
|-1--1-1--1-1--1-1--1-2----1--1-1--1-1--1-1--1-2-----|

|----------------------------------------------------|
|---------------------4------------------------------|
|---------------------4-------------------------6b---|
|-1--1-1--1-1--1-1--1-2----1--1-1--1-1--1-1--1--X----|
|-1--1-1--1-1--1-1--1-2----1--1-1--1-1--1-1--1--4b---|
|-1--1-1--1-1--1-1--1-2----1--1-1--1-1--1-1--1-------|

|----------------------------------------------------|
|---------------------4------------------------4-----|
|---------------------4------------------------4-----|
|-1--1-1--1-1--1-1--1-2----1--1-1--1-1--1-1--1-2-----|
|-1--1-1--1-1--1-1--1-2----1--1-1--1-1--1-1--1-2-----|
|-1--1-1--1-1--1-1--1-2----1--1-1--1-1--1-1--1-2-----|

|----------------------------------------------------|
|---------------------4------------------------4-----|
|---------------------4------------------------4-----|
|-1--1-1--1-1--1-1--1-2----1--1-1--1-1--1-1--1-2-----|
|-1--1-1--1-1--1-1--1-2----1--1-1--1-1--1-1--1-2-----|
|-1--1-1--1-1--1-1--1-2----1--1-1--1-1--1-1--1-2-----|

|----------------------------------------------------|
|-------------------3/4-----------------------3/4----|
|-------------------3/4-----------------------3/4----|
|----------------------------------------------------| x4
|-1----4----1----4---------1----4----1----4----------|
|-1----4----1----4---------1----4----1----4----------|
  .    .    .    .         .    .    .    .

|----------------------------------------------------|
|----------------------------------------------------|
|----------------------------------------------------|
|-6----9----6----9---2-----6----9----6----9---2------|
|-6----9----6----9---2-----6----9----6----9---2------|
|-6----9----6----9---2-----6----9----6----9---2------|

|----------------------------------------------------|
|-------------------3/4-----------------------3/4----|
|-------------------3/4-----------------------3/4----|
|----------------------------------------------------|
|-1----4----1----4---------1----4----1----4----------|
|-1----4----1----4---------1----4----1----4----------|
  .    .    .    .         .    .    .    .

|--------------------------------------------------------|
|--------------------------------------------------------|
|-6--6-6--6-6--6-6--6-6--6-6-----------------------------|
|-6--6-6--6-6--6-6--6-6--6-6-2--2-2--2-2--2-2--2-2--2-2--| x2
|-4--4-4--4-4--4-4--4-4--4-4-2--2-2--2-2--2-2--2-2--2-2--|
|----------------------------2--2-2--2-2--2-2--2-2--2-2--|

|----------------------------------------------------|
|----------------------------------------------------|
|----------------------------------------------------|
|-1----4----1----4---2-----1----4----1----4---2------| x2
|-1----4----1----4---2-----1----4----1----4---2------|
|-1----4----1----4---2-----1----4----1----4---2------|

|----------------------------------------------------|
|-------------------3/4-----------------------3/4----|
|-------------------3/4-----------------------3/4----|
|----------------------------------------------------| x4
|-1----4----1----4---------1----4----1----4----------|
|-1----4----1----4---------1----4----1----4----------|
  .    .    .    .         .    .    .    .

|----------------------------------------------------|
|----------------------------------------------------|
|----------------------------------------------------|
|-6----9----6----9---2-----6----9----6----9---2------|
|-6----9----6----9---2-----6----9----6----9---2------|
|-6----9----6----9---2-----6----9----6----9---2------|

|----------------------------------------------------|
|-------------------3/4-----------------------3/4----|
|-------------------3/4-----------------------3/4----|
|----------------------------------------------------|
|-1----4----1----4---------1----4----1----4----------|
|-1----4----1----4---------1----4----1----4----------|
  .    .    .    .         .    .    .    .

|--------------------------------------------------------|
|--------------------------------------------------------|
|-6--6-6--6-6--6-6--6-6--6-6-----------------------------|
|-6--6-6--6-6--6-6--6-6--6-6-2--2-2--2-2--2-2--2-2--2-2--| x2
|-4--4-4--4-4--4-4--4-4--4-4-2--2-2--2-2--2-2--2-2--2-2--|
|----------------------------2--2-2--2-2--2-2--2-2--2-2--|

|--------------------------------------------------------|
|--------------------------------------------------------|
|--------------------------------------------------------|\
|-9--9-9--9-9--9-9--9-9--9-9-6--6-6--6-6--6-6--6-6--6-6--| \
|-9--9-9--9-9--9-9--9-9--9-9-6--6-6--6-6--6-6--6-6--6-6--|  \
|-9--9-9--9-9--9-9--9-9--9-9-6--6-6--6-6--6-6--6-6--6-6--|   |
                                                             | x2
|--------------------------------------------------------|   |
|--------------------------------------------------------|  /
|--------------------------------------------------------| /
|-4--4-4--4-4--4-4--4-4--4-4-2--2-2--2-2--2-2--2-2--2-2--|/
|-4--4-4--4-4--4-4--4-4--4-4-2--2-2--2-2--2-2--2-2--2-2--|
|-4--4-4--4-4--4-4--4-4--4-4-2--2-2--2-2--2-2--2-2--2-2--|

|--------------------------------------------------------|
|--------------------------------------------------------|
|--------------------------------------------------------|
|-1----4----1----4----1--2--1----4----1----4----1--2-----|
|--------------------------------------------------------|
|--------------------------------------------------------|
  *    *    *    *    *  *  *    *    *    *    *  *

|--------------------------------------------------------|
|--------------------------------------------------------|
|--------------------------------------------------------|
|-1----4----1----4----1--2--1----4----1----4----2--------|
|-----------------------------------------------2--------|
|-----------------------------------------------2--------|
  *    *    *    *    *  *  *    *    *    *

|--------------------------------------------------------|
|--------------------------------------------------------|
|--------------------------------------------------------|
|-1----4----1----4---2--(2)-1----4----1----4---2---------| x2
|-1----4----1----4---2--(2)-1----4----1----4---2---------|
|-1----4----1----4---2--(2)-1----4----1----4---2---------|

|--------------------------------------------------------|
|--------------------------------------------------------|
|--------------------------------------------------------|
|-1----4----1----4---2--(2)-1----4----1----4---2---X-X---|
|-1----4----1----4---2--(2)-1----4----1----4---2---X-X---|
|-1----4----1----4---2--(2)-1----4----1----4---2---X-X---|

|--------------------------------------------------------|
|--------------------------------------------------------|
|--------------------------------------------------------|
|-1----4----1----4---2--(2)-1----4----1----4---2---(2)---|
|-1----4----1----4---2--(2)-1----4----1----4---2---(2)---|
|-1----4----1----4---2--(2)-1----4----1----4---2---(2)---|

|--------------------------------------------------------|
|--------------------------------------------------------|
|--------------------------------------------------------|\
|-9--9-9--9-9--9-9--9-9--9-9-6--6-6--6-6--6-6--6-6--6-6--| \
|-9--9-9--9-9--9-9--9-9--9-9-6--6-6--6-6--6-6--6-6--6-6--|  \
|-9--9-9--9-9--9-9--9-9--9-9-6--6-6--6-6--6-6--6-6--6-6--|   |
                                                             | x4
|--------------------------------------------------------|   |
|--------------------------------------------------------|  /
|--------------------------------------------------------| /
|-4--4-4--4-4--4-4--4-4--4-4-2--2-2--2-2--2-2--2-2--2-2--|/
|-4--4-4--4-4--4-4--4-4--4-4-2--2-2--2-2--2-2--2-2--2-2--|
|-4--4-4--4-4--4-4--4-4--4-4-2--2-2--2-2--2-2--2-2--2-2--|

|----------------------------------------------------|
|---------------------4------------------------4-----|
|---------------------4------------------------4-----|
|-1--1-1--1-1--1-1--1-2----1--1-1--1-1--1-1--1-2-----|
|-1--1-1--1-1--1-1--1-2----1--1-1--1-1--1-1--1-2-----|
|-1--1-1--1-1--1-1--1-2----1--1-1--1-1--1-1--1-2-----|

|----------------------------------------------------|
|---------------------4------------------------------|
|---------------------4------------------------------|
|-1--1-1--1-1--1-1--1-2----1----1----1----1----1-----|
|-1--1-1--1-1--1-1--1-2----1----1----1----1----1-----|
|-1--1-1--1-1--1-1--1-2----1----1----1----1----1-----|



************************************

| .   palm mute
| /   slide up
| \   slide down
| h   hammer-on
| p   pull-off
| ~   vibrato
| *   harmonic
| x   Mute note
| b   Bend
| pb  Pre-bend
| br  Bend release
| pbr Pre-bend release
| brb Bend release bend

************************************
Tap to rate this tab
# A B C D E F G H I J K L M N O P Q R S T U V W X Y Z