Song name
# A B C D E F G H I J K L M N O P Q R S T U V W X Y Z

Breaking Benjamin - Next To Nothing tab

----------------------------------------------------------------------------
			     Next To Nothing - Breaking Benjamin
----------------------------------------------------------------------------
Album: Saturate
Tuning: Db, Ab, Db, Gb, Bb, Eb
Tabbed by: Daniel Dietrich

There is one version which I like a lot, but I found some things to change.
Hope you like it.


Intro (clean):
eb|-0--------|------------------|----------------------------------------|
Bb|-5--------|------------------|----------------------------------------|
Gb|-6---4----|------------------|--x3------------------------------------|
Db|-6---4----|-6------6---(6)---|----------------------------------------|
Ab|-4---2----|-4------4---(4)---|----------------------------------------|
Db|----------|-4------4---(4)---|----------------------------------------|

eb|-0--------|-----0------------|----------------------------------------|
Bb|-5--------|-------0----------|----------------------------------------|
Gb|-6---4----|------------------|----------------------------------------|
Db|-6---4----|-6----------------|----------------------------------------|
Ab|-4---2----|-4----------------|----------------------------------------|
Db|----------|-4----------------|----------------------------------------|

eb|-0--------|------------------|----------------------------------------|
Bb|-5--------|------------------|----------------------------------------|
Gb|-6---4----|------------------|----------------------------------------|
Db|-6---4----|-6------6---(6)---|----------------------------------------|
Ab|-4---2----|-4------4---(4)---|----------------------------------------|
Db|----------|-4------4---(4)---|----------------------------------------|

eb|-0--------|------------------|----------------------------------------|
Bb|-5--------|------------------|----------------------------------------|
Gb|-6---4----|------------------|----------------------------------------|
Db|-6---4----|-6----------------|----------------------------------------|
Ab|-4---2----|-4----------------|----------------------------------------|
Db|----------|-4----------------|----------------------------------------|


Verse

eb|-0--------|------------------|----------------------------------------|
Bb|-5--------|------------------|----------------------------------------|
Gb|-6---4----|------------------|--x3------------------------------------|
Db|-6---4----|-6------6---(6)---|----------------------------------------|
Ab|-4---2----|-4------4---(4)---|----------------------------------------|
Db|----------|-4------4---(4)---|----------------------------------------|

eb|-0--------|------------------|----------------------------------------|
Bb|-5--------|------------------|----------------------------------------|
Gb|-6---4----|------------------|----------------------------------------|
Db|-6---4----|-6--6-6-6-6-6-6-6-|----------------------------------------|
Ab|-4---2----|-4--4-4-4-4-4-4-4-|----------------------------------------|
Db|----------|-4--4-4-4-4-4-4-4-|----------------------------------------|


Pre-Chorus (distortion/palm muted)

eb|-----------------|-----------------|---------------------------------|
Bb|-----------------|-----------------|---------------------------------|
Gb|-2-2-2-2-2-2-2-2-|-4-4-4-4-4-4-4-4-|--x2-----------------------------|
Db|-2-2-2-2-2-2-2-2-|-4-4-4-4-4-4-4-4-|---------------------------------|
Ab|-0-0-0-0-0-0-0-0-|-2-2-2-2-2-2-2-2-|---------------------------------|
Db|-----------------|-----------------|---------------------------------|


Chorus (distortion)

eb|---------------------|---------------------|----------------------------|
Bb|---------------------|---------------------|----------------------------|
Gb|---------------------|-6---6-6---4---4-4-4-|--x4------------------------|
Db|-2---2-2---7---7-7-7-|-6---6-6---4---4-4-4-|----------------------------|
Ab|-2---2-2---7---7-7-7-|-4---4-4---2---2-2-2-|----------------------------|
Db|-2---2-2---7---7-7-7-|---------------------|----------------------------|

eb|-----------------|-----------------|---------------------------------|
Bb|-----------------|-----------------|---------------------------------|
Gb|-2-2-2-2-2-2-2-2-|-----------------|---------------------------------|
Db|-2-2-2-2-2-2-2-2-|-4-4-4-4-4-4-4-4-|---------------------------------|
Ab|-0-0-0-0-0-0-0-0-|-4-4-4-4-4-4-4-4-|---------------------------------|
Db|-----------------|-4-4-4-4-4-4-4-4-|---------------------------------|


Bridge (clean)

eb|-0--------|------------------|----------------------------------------|
Bb|-5--------|------------------|----------------------------------------|
Gb|-6---4----|------------------|----------------------------------------|
Db|-6---4----|-6------6---(6)---|----------------------------------------|
Ab|-4---2----|-4------4---(4)---|----------------------------------------|
Db|----------|-4------4---(4)---|----------------------------------------|

eb|-0--------|-----0------------|----------------------------------------|
Bb|-5--------|-------0----------|----------------------------------------|
Gb|-6---4----|------------------|----------------------------------------|
Db|-6---4----|-6----------------|----------------------------------------|
Ab|-4---2----|-4----------------|----------------------------------------|
Db|----------|-4----------------|----------------------------------------|


Verse (clean)

eb|-0--------|------------------|----------------------------------------|
Bb|-5--------|------------------|----------------------------------------|
Gb|-6---4----|------------------|--x3------------------------------------|
Db|-6---4----|-6------6---(6)---|----------------------------------------|
Ab|-4---2----|-4------4---(4)---|----------------------------------------|
Db|----------|-4------4---(4)---|----------------------------------------|

eb|-0--------|------------------|----------------------------------------|
Bb|-5--------|------------------|----------------------------------------|
Gb|-6---4----|------------------|----------------------------------------|
Db|-6---4----|-6--6-6-6-6-6-6-6-|----------------------------------------|
Ab|-4---2----|-4--4-4-4-4-4-4-4-|----------------------------------------|
Db|----------|-4--4-4-4-4-4-4-4-|----------------------------------------|


Pre-Chorus (distortion/palm muted)

eb|-----------------|-----------------|---------------------------------|
Bb|-----------------|-----------------|---------------------------------|
Gb|-2-2-2-2-2-2-2-2-|-4-4-4-4-4-4-4-4-|--x2-----------------------------|
Db|-2-2-2-2-2-2-2-2-|-4-4-4-4-4-4-4-4-|---------------------------------|
Ab|-0-0-0-0-0-0-0-0-|-2-2-2-2-2-2-2-2-|---------------------------------|
Db|-----------------|-----------------|---------------------------------|


Chorus (distortion)

eb|---------------------|---------------------|----------------------------|
Bb|---------------------|---------------------|----------------------------|
Gb|---------------------|-6---6-6---4---4-4-4-|--x4------------------------|
Db|-2---2-2---7---7-7-7-|-6---6-6---4---4-4-4-|----------------------------|
Ab|-2---2-2---7---7-7-7-|-4---4-4---2---2-2-2-|----------------------------|
Db|-2---2-2---7---7-7-7-|---------------------|----------------------------|

eb|---------------------|---------------------|----------------------------|
Bb|---------------------|---------------------|----------------------------|
Gb|---------------------|---------------------|--x4------------------------|
Db|---7---7---7---7/9---|---7---7---7/9---6---|----------------------------|
Ab|---7---7---7---7/9---|---7---7---7/9---6---|----------------------------|
Db|---7---7---7---7/9---|---7---7---7/9---6---|----------------------------|


Solo

eb|---------------------|---------------------|----------------------------|
Bb|-5---5-5-5/7---7--7--|-/10--9--9-----------|----------------------------|
Gb|---------------------|---------------------|--x4------------------------|
Db|---------------------|---------------------|----------------------------|
Ab|---------------------|---------------------|----------------------------|
Db|---------------------|---------------------|----------------------------|


Chorus (distortion)

eb|---------------------|---------------------|----------------------------|
Bb|---------------------|---------------------|----------------------------|
Gb|---------------------|-6---6-6---4---4-4-4-|--x4------------------------|
Db|-2---2-2---7---7-7-7-|-6---6-6---4---4-4-4-|----------------------------|
Ab|-2---2-2---7---7-7-7-|-4---4-4---2---2-2-2-|----------------------------|
Db|-2---2-2---7---7-7-7-|---------------------|----------------------------|

eb|-----------------|-----------------|---------------------------------|
Bb|-----------------|-----------------|---------------------------------|
Gb|-----------------|-----------------|---------------------------------|
Db|-7-7-7-7-7-7-7-7-|-9-9-9-9-9-9-9-9-|---------------------------------|
Ab|-7-7-7-7-7-7-7-7-|-9-9-9-9-9-9-9-9-|---------------------------------|
Db|-7-7-7-7-7-7-7-7-|-9-9-9-9-9-9-9-9-|---------------------------------|

eb|-----------------|-----------------|---------------------------------|
Bb|-----------------|-----------------|---------------------------------|
Gb|-----------------|-----------------|---------------------------------|
Db|-7-7-7-7-7-7-7-7-|-4-4-4-4-4-4-4-4-|---------------------------------|
Ab|-7-7-7-7-7-7-7-7-|-4-4-4-4-4-4-4-4-|---------------------------------|
Db|-7-7-7-7-7-7-7-7-|-4-4-4-4-4-4-4-4-|---------------------------------|


Outro

eb|-----------|--------------|----------------------------------------|
Bb|-----------|--------------|----------------------------------------|
Gb|-6---------|--------------|----------------------------------------|
Db|-4----7----|-4------------|----------------------------------------|
Ab|-4----7----|-4------------|----------------------------------------|
Db|------7----|-4------------|----------------------------------------|

eb|-----------|--------------|----------------------------------------|
Bb|-----------|--------------|----------------------------------------|
Gb|-6---------|--------------|----------------------------------------|
Db|-4----7----|-4------------|----------------------------------------|
Ab|-4----7----|-4------------|----------------------------------------|
Db|------7----|-4------------|----------------------------------------|

eb|-----------|--------------|----------------------------------------|
Bb|-----------|--------------|----------------------------------------|
Gb|-6---------|--------------|----------------------------------------|
Db|-4----7----|-4--------x-x-|----------------------------------------|
Ab|-4----7----|-4--------x-x-|----------------------------------------|
Db|------7----|-4--------x-x-|----------------------------------------|

eb|-------------|--------------|--------------------------------------|
Bb|-------------|--------------|--------------------------------------|
Gb|---6---------|--------------|--------------------------------------|
Db|-x-4----7----|-4------------|--------------------------------------|
Ab|-x-4----7----|-4------------|--------------------------------------|
Db|-x------7----|-4------------|--------------------------------------|
Tap to rate this tab
# A B C D E F G H I J K L M N O P Q R S T U V W X Y Z