Breed 77 - Final Prayer tab

b - Bend
       Pm - Palm Muted
       () - Harmonic
        h - Hammer-On
Tuning: Drop d



Intro      00:07       Verse 00:23
|---------------------|----------------|
|---------------------|----------------|
|-7b--7-7--/-7--7-7-7-|-7-7-7-7-7-7-7-7|
|-7b--7-7--/-7--7-7-7-|-7-7-7-7-7-7-7-7|
|-5b--5-5--/-5--5-5-5-|-5-5-5-5-5-5-5-5|
|---------------------|----------------|

Chorus      00:35
|--------------------------------------|
|--------------------------------------|
|--------------------------------------|
|13-12-12-12--10-12-12-12--------------|
|13-12-12-12--10-12-12-12--------------|
|13-12-12-12--10-12-12-12--------------|

Bridge           01:34
|--------------------------------------|
|--------------------------------------|
|--------------------------------------|
|12-12-12-12-12--12--------------------|
|12-12-12-12-12--12--------------------|
|12-12-12-12-12--12--------------------|
Pm.  .  .  .  .

Interlude     02:53
|---------------------------------------|
|---------------------------------------|
|---------------------------------------|
|---------------------------------------|
|---------------------------------------|
|12-12-12-12-12-12.....-----------------|
Pm.  .  .  .  .  .
      03:49
|----------------------------------------------------------------|
|----------------------------------------------------------------|
|----------------------------------------------------------------|
|12-12-12-12h-13--12-12-12-13-15b-13-13-13-13h-15-13-13-13-13h-15|
|12-12-12-12h-13--12-12-12-13-15b-13-13-13-13h-15-13-13-13-13h-15|
|12-12-12-12h-13--12-12-12-13-15b-13-13-13-13h-15-13-13-13-13h-15|

Fill-in solo        04:26
|---------------------------------------------|---------------|
|---------------------------------------------|---------------|
|---------------------------------------------|---------------|
|---------------------------------------------|---------------|
|-9-9-9-9-9-9-9--12-12-12-13-13b-13-13b-13-13b|-9-9-9-9--5-5-5|
|---------------------------------------------|---------------|
Tap to rate this tab
 
# A B C D E F G H I J K L M N O P Q R S T U V W X Y Z