Song name
# A B C D E F G H I J K L M N O P Q R S T U V W X Y Z

Breed 77 - Zombie tab

E|----------------------------------------------------------------|
B|----------------------------------------------------------------|
G|-5555-55-----------8888-88--------------------------------------|
D|-5555-55--6666-66--8888-88--8888-88-----------------------------|
A|-3333-33--6666-66--6666-66--8888-88-----------------------------|
E|----------4444-44-----------6666-66-----------------------------|
Play this two part al the song!!
E|-------------------------------------------------------------------|
B|-------------------------------------------------------------------|
G|-555555555----------88888888---------------------------------------|
D|-555555555-66666666-88888888-88888888------------------------------|
A|-333333333-66666666-66666666-88888888------------------------------|
E|-----------44444444----------66666666------------------------------|
 An well there is my tab of this incredible song (i do not own any song or any 
tab) or yeah maybe this tab.
Corrections to: Hell 
not true XD
juli-blaze_xd@live.com.mx
Tap to rate this tab
 
# A B C D E F G H I J K L M N O P Q R S T U V W X Y Z