Song name
# A B C D E F G H I J K L M N O P Q R S T U V W X Y Z

Brian Head Welch - Shake tab



 Song:Shake
 Artist:Brian Head Welch
 Album:Save Me From Myself
 Tabbed By:Head18902


 Legend: / \ Slides % Rest h-hammer on
         b-Bend  r-release bend

 Intro/Lead Guitar (Clean With Auto-Wah)
d|----------------------------------------------------|
a|----------------------------------------------------|
F|----------------------------------------------------|
C|----------------------------------------------------|
G|-8--6--8--6--8-6-8-6-8--6--9--8--9--8--9-8-9-8-9--8-|
D|----------------------------------------------------|
A|----------------------------------------------------|

d|----------------------------------------------------|
a|----------------------------------------------------|
F|----------------------------------------------------|
C|-8--4--8--4--8-4-8-4-8--4--6--3--6--3--6-3-6-3-6--3-|
G|----------------------------------------------------|
D|----------------------------------------------------|
A|----------------------------------------------------|

 Verse Ryhthm Guitar (4x)
d|---------------------------------------------------------|
a|---------------------------------------------------------|
F|---------------------------------------------------------|
C|-9-/8--8-8------9-/8--8-6---9----9-/8--8-8-----9-/8--8-9-|
G|-9-/8--8-8--%---9-/8--8-6---9----9-/8--8-8--%--9-/8--8-9-|
D|-7-/6--6-6------7-/6--6-4---7----7-/6--6-6-----7-/6--6-7-|
A|---------------------------------------------------------|


 Guitar Fill (8x)          Pre-Chours
d|-15/17--17\15----| d|--------------------|
a|--------------17-| a|--------------------|
F|-----------------| F|--------------------|
C|-----------------| C|-8-\9-/8--8-\9-/8---|
G|-----------------| G|-8-\9-/8--8-\9-/8---|
D|-----------------| D|-6-\7-/6--6-\7-/6---|
A|-----------------| A|--------------------|

 Chours (4x)
d|----------------------------------|
a|----------------------------------|
F|----------------------------------|
C|-8------------------9-------------|
G|-8-----4------6-----9-------------|
D|-6-----4------6-----7-------------|
A|-------2------4-------------------|

  Verse (4x)
d|----------------------------------------------------|
a|----------------------------------------------------|
F|----------------------------------------------------|
C|----------------------------------------------------|
G|-8--6--8--6--8-6-8-6-8--6--9--8--9--8--9-8-9-8-9--8-|
D|----------------------------------------------------|
A|----------------------------------------------------|

d|----------------------------------------------------|
a|----------------------------------------------------|
F|----------------------------------------------------|
C|-8--4--8--4--8-4-8-4-8--4--6--3--6--3--6-3-6-3-6--3-|
G|----------------------------------------------------|
D|----------------------------------------------------|
A|----------------------------------------------------|


 Verse Ryhthm Guitar (4x)
d|---------------------------------------------------------|
a|---------------------------------------------------------|
F|---------------------------------------------------------|
C|-9-/8--8-8------9-/8--8-6---9----9-/8--8-8-----9-/8--8-9-|
G|-9-/8--8-8--%---9-/8--8-6---9----9-/8--8-8--%--9-/8--8-9-|
D|-7-/6--6-6------7-/6--6-4---7----7-/6--6-6-----7-/6--6-7-|
A|---------------------------------------------------------|


 Guitar Fill (8x)          Pre-Chours
d|-15/17--17\15----| d|--------------------|
a|--------------17-| a|--------------------|
F|-----------------| F|--------------------|
C|-----------------| C|-8-\9-/8--8-\9-/8---|
G|-----------------| G|-8-\9-/8--8-\9-/8---|
D|-----------------| D|-6-\7-/6--6-\7-/6---|
A|-----------------| A|--------------------|

 Chours (4x)
d|----------------------------------|
a|----------------------------------|
F|----------------------------------|
C|-8------------------9-------------|
G|-8-----4------6-----9-------------|
D|-6-----4------6-----7-------------|
A|-------2------4-------------------|

 Bridge 1/(Clean Guitar For Piano) (4x)
d|---------------------------------------------------------------------|
a|------14---12h14h15-14-12-14------------14---12h14h15-14-12-14-------|
F|-11-14--13-------------------14-13-11-14--11-------------------14-13-|
C|---------------------------------------------------------------------|
G|---------------------------------------------------------------------|
D|---------------------------------------------------------------------|
A|---------------------------------------------------------------------|

 Bridge 2 Guitar (3x)
d|-----------------------------------------------------------|
a|-8b-(9)r(8)----8b-(9)r(8)----8b-(6)r(8)----8b-(9)r(8)------|
F|-----------------------------------------------------------|
C|-5b-(6)r(5)-5--5b-(6)r(5)-5--5b-(6)r(5)-5--5b-(6)r(5)-5----|
G|------------5-------------5-------------5-------------5--4-|
D|------------3-------------3-------------3-------------3--4-|
A|---------------------------------------------------------2-|

 Bridge 2 Guitar (3x)
d|-----------------------------------------------------------|
a|-----------------------------------------------------------|
F|------------19------------20------------17-----------19--15|
C|-----------------------------------------------------------|
G|-----------------------------------------------------------|
D| ----------------------------------------------------------|
A|-----------------------------------------------------------|

 Chours 2 Ryhthm Guitar (3x)
d|-----------------------------------------|
a|-----------------------------------------|
F|-----------------------------------------|
C|-----------------------------------------|
G|-6-6-6-6--9-9-9-9--4-4-4-4--11-11-11-11--|
D|-6-6-6-6--9-9-9-9--4-4-4-4--11-11-11-11--|
A|-4-4-4-4--7-7-7-7--2-2-2-2---9--9--9--9--|
                                           |
d|-----------------------------------------|
a|-----------------------------------------|
F|-----------------------------------------|
C|-----------------------------------------|
G|-9-9-9-9--8-8-8-8--13-13-13-13--4-4-4----|
D|-9-9-9-9--8-8-8-8--13-13-13-13--4-4-4----|
A|-7-7-7-7--6-6-6-6--11-11-11-11--2-2-2----|
                                           |
                                           |
 Chours 2 Lead Guitar (With Uni-Vibe) (3x) |
d|-----------------------------------------|
a|--18----19-18----18-14-16-18-13-16-14-18-|
F|-----15-------15-------------------------|
C|-----------------------------------------|
G|-----------------------------------------|
D|-----------------------------------------|
A|-----------------------------------------|
                                           |
d|-----------------------------------------|
a|---19-18-----18-14-16-18-18-16-14--------|
F|-15-------14-----------------------------|
C|-----------------------------------------|
G|-----------------------------------------|
D|-----------------------------------------|
A|-----------------------------------------|

 Ryhthm Guitar Outro (3x)
d|-------------|
a|-------------|
F|-------------|
C|-9-\8--8-8--%|
G|-9-\8--8-8---|
D|-7-\6--6-6---|
A|

 Lead Guitar Outro (3x)
d|-15/17--17\15--|
a|-------------17|
F|---------------|
C|---------------|
G|---------------|
D|---------------|

 Ryhthm Guitar Outro
d|------------------------------------------------------------------------|
a|------------------------------------------------------------------------|
F|------------------------------------------------------------------------|
C|--9-\8---8-8--9-\-8---8-/-9-\-8-----9-\8---8-8------8-/-9-\-8--6--9-----|
G|--9-\8---8-8--9-\-8---8-/-9-\-8--%--9-\8---8-8------8-/-9-\-8--6--9-----|
D|--7-\6---6-6--7-\-6---6-/-7-\-6-----7-\6---6-6------6-/-7-\-6--4--7-----|
A|------------------------------------------------------------------------|

 Outro Chorus  Lead Guitar  Outro
d|--17-/19-----19-\17-------------|
a|-------------------19-----------|
F|--------------------------------|
C|--------------------------------|
G|--------------------------------|
D|--------------------------------|
A|--------------------------------|

Listen to the parts and timing.
Tap to rate this tab
 
# A B C D E F G H I J K L M N O P Q R S T U V W X Y Z