Song name
# A B C D E F G H I J K L M N O P Q R S T U V W X Y Z

Brian Jonestown Massacre - Monster tab

Intro (Everything is picked upwards):

2-------2-------2-------2---3-------3-------3--2--0------0---2-2------------------|
3-------3-------3-------3---3-------3-------3--3--3--3--3---3-3-------------------|
2--2---2--2---2--2----2---2--2---2--2----2--2--2-----2---2-2----------------------|
0-------0-------0-------0---0-------0-------0--0--0-----0---0-0-------------------|
----------------------------------------------------------------------------------|
----------------------------------------------------------------------------------|

etc

when I looked in your eyes... (slide part, you know what to do at /)

-----------------------------------------------------------------15---------------|
-------------7----7/5--5/-----------------12---------12/15------------------------|
0/2--2/-------7-----------7--7/12--12--------12-----------------------------------|
----------------------------------------------------------------------------------|
----------------------------------------------------------------------------------|
----------------------------------------------------------------------------------|

Chorus:

....A....................G
Uncommon expectations do arise

2--3--2--0---------|
3--3--3--3--3------|
2--2--2--2---------|
0--0--0--0---------|
-------------------|
-------------------|

....A................................G
I make peace with your monsters and their lies

2-------2-------2-------2---3-------3-------3--2--0------0---2-0--2---------------|
3-------3-------3-------3---3-------3-------3--3--3--3--3---3-3--3----------------|
2--2---2--2---2--2----2---2--2---2--2----2--2--2-----2---2-2---2------------------|
0-------0-------0-------0---0-------0-------0--0--0-----0---0-0--0----------------|
----------------------------------------------------------------------------------|
----------------------------------------------------------------------------------|
Tap to rate this tab
# A B C D E F G H I J K L M N O P Q R S T U V W X Y Z